Zacznij systematycznie uczyć się grać na gitarze razem ze stroną Moja nauka - będziesz miał/miała do niej dostęp po zalogowaniu się w serwisie

A.C.A.B - The 4 Skins

Dodał -a: azpunk,
Redaktor: Seba,
Data publikacji: 2016-02-03 12:39
 
Moja nauka


Ups, problem :-/
Zaloguj się Mój śpiewnik
INTRO I ZWROTKA
--------------------------------------------------------------
--------------------------------------------------------------
--4444--2-2-2----------4-4-4-----4444--2-2-2------------------
--4444--2-2-2----5555--4-4-4-----4444--2-2-2----5555--2-2-2---
--2222--0-0-0----5555--2-2-2-----2222--0-0-0----5555--2-2-2---
-----------------3333---------------------------3333--0-0-0---



REFREN


--------------------    --------------------------------------
--------------------    --------------------------------------
--------------------    --99999999----------------------------
--5---7---9--9999---    --99999999----------------------------
--5---7---9--9999---(x3)--77777777----------------------------
--3---5---7--7777---    --------------------------------------

Dodaj komentarz ...i/lub link do filmiku video

Zaloguj się do serwisu
Ostatnie komentarze
1.
pablo_siersza
2016-02-05 16:01
All Cops Are Bastards! Oi!
Wszelkie materiały i wypowiedzi zamieszczone na www.chords.pl są własnością ich autorów.