Zacznij systematycznie uczyć się grać na gitarze razem ze stroną Moja nauka - będziesz miał/miała do niej dostęp po zalogowaniu się w serwisie

Jailbreak (tab) - AC/DC

Opracował -a: xopow,
Dodał -a: xopow,
Redaktor: Seba,
Pochodzi z: http://www.chords.pl/
Data publikacji: 2017-04-17 12:21
 
Moja nauka


Ups, problem :-/
Zaloguj się Mój śpiewnik


|-----------------------------|
|-----------------------------|
|--------5--4-----------5--4--|
|--0--0-------0--0---0--------|


|---------------------------------------------------------------------------------------------------|
|---------------0--0--0--0--------------0--0--0--4--------------------------------------0--0--0--0--|
|---0--0--0--0--------------0--0--0--0--------------2--2--2--2--------------2--2--2--2--------------|
|---------------------------------------------------------------0--0--0--0--------------------------|

Dodaj komentarz ...i/lub link do filmiku video

Zaloguj się do serwisu
Wszelkie materiały i wypowiedzi zamieszczone na www.chords.pl są własnością ich autorów.