Zacznij systematycznie uczyć się grać na gitarze razem ze stroną Moja nauka - będziesz miał/miała do niej dostęp po zalogowaniu się w serwisie

Blustery Nite Tour - Acid Drinkers

Opracował -a: trenermiecinek,
Dodał -a: trenermiecinek,
Redaktor: Tomek Pietrzkowski,
Pochodzi z: http://www.chords.pl/
Data publikacji: 2019-11-04 10:01
 
Moja nauka


Ups, problem :-/
Zaloguj się Mój śpiewnik
Moje pierwsze opracowanie :)
Strój-Drop C

*-pinch harmonics
                                    x1
d |----------------------------------|
A |---------------------------8*-----|
F |--------------7*------------------|
C |----------------------------------|
G |----------------------------------|
C |----------------------------------|

Riff_1            x8
d |-----------------|
A |-----------------|
F |-----------------|
C |-----------------|
G |-0-1-2-0-3-0-3-5-|
C |-0-1-2-0-3-0-3-5-|

Riff_2
Guitar_1                                x1
d |--------------------------------------|
A |--------------------------------------|
F |--------------------------------------|
C |--------------------------------------|
G |-0-1-2-0-----------0-1-2-0------------|
C |-0-1-2-0-----------0-1-2-0------------|

Guitar_2                              x1
d |------------------------------------|
A |-----------11---------------10------|
F |-----------10---------------9-------|
C |------------------------------------|
G |-0-1-2------------0-1-2-------------|
C |-0-1-2------------0-1-2-------------|

Riff_3                               x1
d |-----------------------------------|
A |-----------------------------------|
F |-----------------------------------|
C |-----------------------------------|
G |-0-1-2-0-3-0-3-5--0-1-2-0-3-0------|
C |-0-1-2-0-3-0-3-5--0-1-2-0-3-0------|

BASS             x8
F |---------------|
C |---------------|
G |-3-------------|
C |---0-3-0-3-5-0-|

Riff_4
Guitar_1                             x8
d |-----------------------------------|
A |-----------------------------------|
F |-----------------------------------|
C |--5--------------------------------|
G |--3-0-3-0-3-5-0--------------------|
C |----0-3-0-3-5-0--------------------|

Guitar_2                             x4
d |-----------------------------------|
A |-13--------------------------------|
F |-12--------------------------------|
C |-----------------------------------|
G |----0-3-0-3-5-0--------------------|
C |----0-3-0-3-5-0--------------------|

Guitar_2                                                          x1
d |----------------------------------------------------------------|
A |-13--------------15--------------16--------------18-------------|
F |-12--------------14--------------15--------------17-------------|
C |----------------------------------------------------------------|
G |----0-3-0-3-5-0-----0-3-0-3-5-0-----0-3-0-3-5-0-----0-3-0-3-5-0-|
C |----0-3-0-3-5-0-----0-3-0-3-5-0-----0-3-0-3-5-0-----0-3-0-3-5-0-|

Riff_5                                  x3
d |--------------------------------------|
A |--------------------------------------|
F |--------------------------------------|
C |-7-----5------------------------------|
G |-5-----3-----5-----3------------------|
C |-------------5-----3------------------|
                                 x1
d |-------------------------------|
A |-------------------------------|
F |-------------------------------|
C |-7-----5-----------------------|
G |-5-----3-----5-----3-----3-2-1-|
C |-------------5-----3-----3-2-1-|

Riff_6             x4
d |-----------------|
A |-----------------|
F |-----------------|
C |-----------------|
G |-0-1-2-0-3-0-3-5-|
C |-0-1-2-0-3-0-3-5-|

                      x1
d |--------------------|
A |--------------------|
F |-----------------5*-|
C |--------------------|
G |-0-1-2-0-3-0-3-5----|
C |-0-1-2-0-3-0-3-5----|

Riff_7             x4
d |-----------------|
A |-----------------|
F |-----------------|
C |-----------------|
G |-0-1-2-0-3-0-3-5-|
C |-0-1-2-0-3-0-3-5-|

Riff_8
Guitar_1                             x8
d |-----------------------------------|
A |-----------------------------------|
F |-----------------------------------|
C |--5--------------------------------|
G |--3-0-3-0-3-5-0--------------------|
C |----0-3-0-3-5-0--------------------|

Guitar_2                             x4
d |-----------------------------------|
A |-13--------------------------------|
F |-12--------------------------------|
C |-----------------------------------|
G |----0-3-0-3-5-0--------------------|
C |----0-3-0-3-5-0--------------------|

Guitar_2                                                          x1
d |----------------------------------------------------------------|
A |-13--------------15--------------16--------------18-------------|
F |-12--------------14--------------15--------------17-------------|
C |----------------------------------------------------------------|
G |----0-3-0-3-5-0-----0-3-0-3-5-0-----0-3-0-3-5-0-----0-3-0-3-5-0-|
C |----0-3-0-3-5-0-----0-3-0-3-5-0-----0-3-0-3-5-0-----0-3-0-3-5-0-|

Riff_9                                  x3
d |--------------------------------------|
A |--------------------------------------|
F |--------------------------------------|
C |-7-----5------------------------------|
G |-5-----3-----5-----3------------------|
C |-------------5-----3------------------|

                                 x1
d |-------------------------------|
A |-------------------------------|
F |-------------------------------|
C |-7-----5-----------------------|
G |-5-----3-----5-----3-----3-2-1-|
C |-------------5-----3-----3-2-1-|

Podkład pod pierwszą solówkę x7
d |---------------------------|
A |---------------------------|
F |---------------------------|
C |---------------------------|
G |-0-1-2-0-3-0-3-5-----------|
C |-0-1-2-0-3-0-3-5-----------|
                                     x1
d |-----------------------------------|
A |-----------------------------------|
F |-----------------------------------|
C |-----------------------------------|
G |-0-1-2-0-3-0-3-5--0-1-2-0-3-0------|
C |-0-1-2-0-3-0-3-5--0-1-2-0-3-0------|

Podkład pod drugą solówkę            x8
d |-----------------------------------|
A |-----------------------------------|
F |-----------------------------------|
C |--5--------------------------------|
G |--3-0-3-0-3-5-0--------------------|
C |----0-3-0-3-5-0--------------------|

Riff_9                                  x3
d |--------------------------------------|
A |--------------------------------------|
F |--------------------------------------|
C |-7-----5------------------------------|
G |-5-----3-----5-----3------------------|
C |-------------5-----3------------------|

                                 x1
d |-------------------------------|
A |-------------------------------|
F |-------------------------------|
C |-7-----5-----------------------|
G |-5-----3-----5-----3-----3-2-1-|
C |-------------5-----3-----3-2-1-|

Riff_10                                         x1
d |----------------------------------------------|
A |----------------------------------------------|
F |----------------------------------------------|
C |----------------------------------------------|
G |-0-1-2-0-3-0----------------------------------|
C |-0-1-2-0-3-0----------------------------------|
Dodał: trenermiecinek, 2019-11-04 10:06
Opracowania video z komentarzy

Dodaj komentarz ...i/lub link do filmiku video

Zaloguj się do serwisu
Wszelkie materiały i wypowiedzi zamieszczone na www.chords.pl są własnością ich autorów.