Zacznij systematycznie uczyć się grać na gitarze razem ze stroną Moja nauka - będziesz miał/miała do niej dostęp po zalogowaniu się w serwisie

Sto tysięcy słońc - Andrzejki

Opracował -a: mroovek,
Dodał -a: mroovek,
Redaktor: Seba,
Pochodzi z: http://www.chords.pl/
Data publikacji: 2013-05-24 14:02
 
Moja nauka


Ups, problem :-/
Zaloguj się Mój śpiewnik


Intro:
Dis Ais Cis Gis
Fis Gis Ais

Zwrotka:
Dis Fis Cis Gis x4
Fis Ais Cis Gis x2

Refren:
Dis Ais Cis Gis
Fis Gis Ais

Podkład pod solo:
Dis Ais Cis Gis
Fis Gis Ais

Solo akustyczne x2 (Andrzej II)

E1|----------------------------------------------------------------------------------------
H|--------11------------------------9---------------------------------------------------11-
G|-8--8-8----8---------10----6--6-6---6---------8-----------3-----------5-------------10---
D|--------------8--8-8----8--------------6--6-6---6--4--4-4---4--6--6-6---6--8--8-8-8------
A|-----------------------------------------------------------------------------------------
E6|----------------------------------------------------------------------------------------

Solo elektryczne: (Andrzej III)

E1|--11------11----11----11----11--11-----11----11----11---11h14p11----11----------------
H|---14b17---14b17-14b17-14b17---------17----17----17---------------14----14p11h14---11--
G|---------------------------------------------------------------------------------14----
D|---------------------------------------------------------------------------------------
A|---------------------------------------------------------------------------------------
E6|--------------------------------------------------------------------------------------

E1|--------------------------------------------------------------------------------
H|---------------------------------------------------------------------------------
G|------------------------11--11-13b15b13--11 13--13b15-13b15-13b15-13b15b13-11----
D|---------------11--11-13--13--------------------------------------------------13-
A|-------11h12h13--13--------------------------------------------------------------
E6|-11h14--------------------------------------------------------------------------

E1|------------------------------------------------------------------------------
H|-------------------------------------------------------------------------------
G|-------------------------------------------------------------------------------
D|-----------------------------------11~~-13--13-13-13-13-13--11--11-11-11-11-11--
A|--13-13-11-13-13-13-11-13-13-11-13------13--13-13-13-13-13--11--11-11-11-11-11--
E6|------------------------------------------------------------------------------

E1|-11----11-----11----11----11--11--11--11--11-11--11h14p11h14p11h14p11h14~~11~~
H|--14b17-14b17--14b17-14b17-17--17--17--17--17-17-----------------~-------------
G|-------------------------------------------------------------------------------
D|-------------------------------------------------------------------------------
A|-------------------------------------------------------------------------------
E6|------------------------------------------------------------------------------

Część narracyjna: x2

E1|----------------------------------------------------------------------------------
H|-----------------------------------------11-10-------11-10h11p10h11p10-------------
G|--------------------------------------8---------10-8-------------------10-8--------
D|-------8--7--------8-7h8p7h8p7h8p7-------------------------------------------------
A|---6----------8--6------------------8-6--------------------------------------------
E6|----------------------------------------------------------------------------------
Dodał: mroovek, 2013-05-24 14:02
Opracowania video z komentarzy

Dodaj komentarz ...i/lub link do filmiku video

Zaloguj się do serwisu
Ostatnie komentarze
1.
zz76zz
2014-12-30 22:01
Zapraszam tutaj po nuty :D zajebiste opracowania mają http://adf.ly/viSYb
2.
hercynka87
2014-03-25 16:02
fajna :) Ale chyba trudna :(
Wszelkie materiały i wypowiedzi zamieszczone na www.chords.pl są własnością ich autorów.