Zacznij systematycznie uczyć się grać na gitarze razem ze stroną Moja nauka - będziesz miał/miała do niej dostęp po zalogowaniu się w serwisie

Pochylony nad pradawnym manuskryptem - Andrzejki

Opracował -a: mroovek,
Dodał -a: mroovek,
Redaktor: Seba,
Pochodzi z: http://www.chords.pl/
Data publikacji: 2014-03-22 11:37
 
Moja nauka


Ups, problem :-/
Zaloguj się Mój śpiewnik


E|-0---------------0--------0---0-
H|----1--3--0---0-----1--3--------
G|--------------------------------
D|--------------------------------
A|-0---------------0--------0-----
E|----------3---------------------


E|-0------------------------------
H|----1--3--0---0---0-------------
G|--------------------------------
D|--------------------------------
A|-0------------------------------
E|----------3---1---3-------------

ostatnia pętla

E|-0---------------0--------0---0-
H|----1--3--0---0-----1--3--------
G|--------------------------------
D|--------------------------------
A|-0---------------0--------0-----
E|----------3---------------------


E|-0---------------------0--------
H|----1--3--0---0---0-------------
G|--------------------------------
D|--------------------------------
A|-0---------------------0--------
E|----------3---1---3-------------
Dodał: mroovek, 2014-03-22 11:38
Opracowania video z komentarzy

Dodaj komentarz ...i/lub link do filmiku video

Zaloguj się do serwisu
Ostatnie komentarze
1.
zurawie
2014-03-26 13:42
Extra
Wszelkie materiały i wypowiedzi zamieszczone na www.chords.pl są własnością ich autorów.