Zacznij systematycznie uczyć się grać na gitarze razem ze stroną Moja nauka - będziesz miał/miała do niej dostęp po zalogowaniu się w serwisie

Proroctwo - Andrzejki

Opracował -a: mroovek,
Dodał -a: mroovek,
Redaktor: Seba,
Pochodzi z: http://www.chords.pl/
Data publikacji: 2014-03-22 11:37
 
Moja nauka


Ups, problem :-/
Zaloguj się Mój śpiewnik


OOOOooooOOOOoooo...

Intro:

a C G a
a C G a
a C D a
a C G a


E|--------------------------
H|--------------------------
G|------4-5---4---------4---
D|-7--7---------7-5---7---7-
A|--------------------------
E|--------------------------

E|--------------------------
H|--------------------------
G|------4-5---4---------4---
D|-7--7---------7-5---7---7-
A|--------------------------
E|--------------------------

E|--------------------------
H|--------------------------
G|------4-5---4-5-7---5-4---
D|-7--7-------------------7-
A|--------------------------
E|--------------------------

E|--------------------------
H|--------------------------
G|------4-5---4---------4---
D|-7--7---------7-5---7---7-
A|--------------------------
E|--------------------------

intro solo:

E|----------7-8----7------------7--------
H|-10----10----------10-8----10---10-----
G|---------------------------------------
D|---------------------------------------
A|---------------------------------------
E|---------------------------------------


E|----------7-8----7------------7--------
H|-10----10----------10-8----10---10-----
G|---------------------------------------
D|---------------------------------------
A|---------------------------------------
E|---------------------------------------


E|----------7-8----7-8-10----8--7--------
H|-10----10------------------------10----
G|---------------------------------------
D|---------------------------------------
A|---------------------------------------
E|---------------------------------------


E|----------7-8----7----------7h8p7------
H|-10----10----------10-8-10--------8-10-
G|---------------------------------------
D|---------------------------------------
A|---------------------------------------
E|---------------------------------------

główny riff:

prowadząca
E|-----------------------------------------------------------------------------
H|-----------------------------------------------------------------------------
G|-----------------------------------------------------------------------------
D|-----------------------------------------------------------------------------
A|-7-7-7-7-7-7-7-9-10-10-10-10-9-9-10-10-12-12-12-12-10-10-9-9-7-7-7-7-7-5-5-5-
E|-----------------------------------------------------------------------------
rytm
E|-----------------------------------------------------------------------------
H|-----------------------------------------------------------------------------
G|-----------------------------------------------------------------------------
D|-2-----------2-4-5-------------4-5-----7-----------5-----4---2---------------
A|-2-----------2-4-5-------------4-5-----7-----------5-----4---2---------------
E|-0-----------0-2-3-------------2-3-----5-----------3-----2---0---------------

prowadząca
E|---------------------------------------------------------------------------------------
H|---------------------------------------------------------------------------------------
G|---------------------------------------------------------------------------------------
D|---------------------------------------------------------------------------------------
A|-7-7-7-7-7-7-7-9-10-10-10-10-9-9-10-10-12-12-12-12-12-12-12-12-14-14-14-14-14-14-14-14-
E|---------------------------------------------------------------------------------------
rytm
E|-----------------------------------------------------------------------------
H|-----------------------------------------------------------------------------
G|-----------------------------------------------------------------------------
D|-2-----------2-4-5-------------4-5-----7-----------5-----7-----9-------------
A|-2-----------2-4-5-------------4-5-----7-----------5-----7-----9-------------
E|-0-----------0-2-3-------------2-3-----5-----------3-----5-----7-------------

prowadząca
E|-----------------------------------------------------------------------------
H|-----------------------------------------------------------------------------
G|-----------------------------------------------------------------------------
D|-----------------------------------------------------------------------------
A|-3-3-3-3-3-3-3-3-----------------5-5-5-5-5-5-5-5-----------------------------
E|-----------------3-3-3-3-3-3-3-3-----------------5-5-5-5-5-5-5-5-------------
rytm
E|-----------------------------------------------------------------------------
H|-----------------------------------------------------------------------------
G|-5-------------------------------7-------------------------------------------
D|-5---------------5---------------7---------------7---------------------------
A|-3---------------5---------------5---------------7---------------------------
E|-----------------3-------------------------------5---------------------------

prowadząca
E|-----------------------------------------------------------------------------
H|-----------------------------------------------------------------------------
G|-----------------------------------------------------------------------------
D|-----------------------------------------------------------------------------
A|-3-3-3-3-3-3-3-3-----------------2-2-2-2-2-2-2-2-2-2-2-2-2-2-2-2-------------
E|-----------------3-3-3-3-3-3-3-3---------------------------------------------
rytm
E|-----------------------------------------------------------------------------
H|-----------------------------------------------------------------------------
G|-5-------------------------------4-------------------------------------------
D|-5---------------5---------------4-------------------------------------------
A|-3---------------5---------------2-------------------------------------------
E|-----------------3-----------------------------------------------------------

refren:

E|-----------------------------------------------------------------------------
H|-----------------------------------------------------------------------------
G|-5-------7-8-7----------3---------5-------7-8-7----------3-------------------
D|-5-------7-8-7-----5----3---------5-------7-8-7----5-----3-------------------
A|-3-------5-6-5-----5----1---------3-------5-6-5----5-----1-------------------
E|-------------------3-------------------------------3-------------------------

E|-----------------------------------------------------------------------------
H|-----------------------------------------------------------------------------
G|-5-------7-8-7----------3---------5-------7-8-7----------3-------------------
D|-5-------7-8-7-----5----3---------5-------7-8-7----5-----3-------------------
A|-3-------5-6-5-----5----1---------3-------5-6-5----5-----1-------------------
E|-------------------3-------------------------------3-------------------------

WHAAAAAAAAAAAA!!!!! \m/

E|----------------------7-----------------------------------------------7------
H|---------7-8--7-8-10----10--8-7---------------7-8--7-8-10--8-10--8-10--------
G|--/9---9------------------------9---9p7h9---9--------------------------------
D|-----------------------------------------------------------------------------
A|-----------------------------------------------------------------------------
E|-----------------------------------------------------------------------------

E|-7-8-7h8p7-------10---10---------8---8---7h8p7h8p7h8p7h8p7h8p7h8p7h8p7h8p7---
H|-----------8---8---------10---10-------8-------------------------------------
G|-----------------------------------------------------------------------------
D|-----------------------------------------------------------------------------
A|-----------------------------------------------------------------------------
E|-----------------------------------------------------------------------------

E|-----------------------------------------------------------------------------
H|-----------------------------------------------------------------------------
G|----------14p12--------12----12-14-14b16----------14p12--------12----12------
D|-14-14-14-------14--14----14-------------14-14-14-------14--14----14----14---
A|---------------------------------------------------------------------------14
E|-----------------------------------------------------------------------------

E|-----------------------------------------------------------------------------
H|-----------------------------------------------------------------------------
G|-----------------------------------------------------------------------------
D|----------17----------------------------19-----------------------------------
A|-15-15-15----15----------17----17-17-17----17----------19--------------------
E|----------------15-15-15----15----------------17-17-17----17-----------------

E|-----------------------------------------------------------------------------
H|-----------------------------------------------------------------------------
G|-----------------------------------------------------------------------------
D|----------17----------------15----------16--------------16-------------------
A|-15-15-15----15----------17----14-14-14----14--14-14-14-14-------------------
E|----------------15-15-15-----------------------------------------------------


E|-----------------------------------------------------------------------------
H|-----------------------------------------------------------------------------
G|-----------------------------------------------------------------------------
D|-----------------------------------------------------------------------------
A|-15---18--17-18--17-15---18--17-18--17-15---18--17-18--17-15---15/3----------
E|-----------------------------------------------------------------------------

Heavy riff

E|-----------------------------------------------------------------------------
H|-----------------------------------------------------------------------------
G|-----------------------------------------------------------------------------
D|-5/4-------------5/4-----7-----5/4-------------5/4-----7---------------------
A|-3/2-2-2-2-2-2-2-3/2-2-2-5-----3/2-2-2-2-2-2-2-3/2-2-2-5---------------------
E|-----0-0-0-0-0-0-----0-0-----------0-0-0-0-0-0-----0-0-----------------------

prowadząca
E|--------------------------------7------7--------------8-----------8-----------7-----7-------
H|----------------------------7------7------7--------8-----8-----8-----8-----7-----7-----7----
G|-------5-----------5-----4-------------------4--5-----------5-----------4-----------------4-
D|----5-----5-----5-----5---------------------------------------------------------------------
A|-3-----------3------------------------------------------------------------------------------
E|--------------------------------------------------------------------------------------------
rytm
E|---------------------------------------------------------------------------------------------
H|---------------------------------------------------------------------------------------------
G|-5--------------------5---4------------------4--5--------------------5--4-----------------4--
D|-5--------------------5---4------------------4--5--------------------5--4-----------------4--
A|-3--------------------3---2------------------2--3--------------------3--2-----------------2--
E|---------------------------------------------------------------------------------------------


prowadząca
E|--------------------------------------------------------------------------------------------
H|--------------------------------------------------------------------------------------------
G|-9-----10----11----12-----9-----10----11----12----------------------------------------------
D|-9-----10----11----12-----------------------------------------------------------------------
A|-7-----8-----9-----10-----------------------------------------------------------------------
E|--------------------------------------------------------------------------------------------
rytm
E|--------------------------------------------------------------------------------------------
H|--------------------------------------------------------------------------------------------
G|--------------------------------------------------------------------------------------------
D|-2-----3-----4-----5------2------3-----4-----5-----------------------------------------------
A|-2-----3-----4-----5------2------3-----4-----5-----------------------------------------------
E|-0-----1-----2-----3------0------1-----2-----3-----------------------------------------------



prowadząca
E|--------------------------------------------------------------------------------------
H|-----------------------------------------------------13-15-13-------------------------
G|-14------14-12-14----14-12-14--------------------------------12-14----------14b16b14--
D|--------------------------------------------------------------------------------------
A|--------------------------------------------------------------------------------------
E|--------------------------------------------------------------------------------------
rytm
E|--------------------------------------------------------------------------------------
H|--------------------------------------------------------------------------------------
G|--------------------------------------------------------------------------------------
D|-7--------7--7--7----7--7--7--------5--------3--------5--------7--------5--------3----
A|-7--------7--7--7----7--7--7--------5--------3--------5--------7--------5--------3----
E|-5--------5--5--5----5--5--5--------3--------1--------3--------5--------3--------1----

prowadząca
E|--------------------------------------------------------------------------------------
H|--13-15-13--15b17b15--13h15p13--------13------------------------15//////--------------
G|14--------14------------------------14--14-12-14--------------------------------------
D|--------------------------------------------------------------------------------------
A|--------------------------------------------------------------------------------------
E|--------------------------------------------------------------------------------------
rytm
E|--------------------------------------------------------------------------------------
H|--------------------------------------------------------------------------------------
G|--------------------------------------------------------------------------------------
D|-5--------7--------5--------3--------5--------7--------5--------3--------2------------
A|-5--------7--------5--------3--------5--------7--------5--------3--------2------------
E|-3--------5--------3--------1--------3--------5--------3--------1--------0------------

powerchordy

a C G a
a C G a
a C D a
a C G a


E|--------------------------
H|--------------------------
G|------4-5---4---------4---
D|-7--7---------7-5---7---7-
A|--------------------------
E|--------------------------

E|--------------------------
H|--------------------------
G|------4-5---4---------4---
D|-7--7---------7-5---7---7-
A|--------------------------
E|--------------------------

E|--------------------------
H|--------------------------
G|------4-5---4-5-7---5-4---
D|-7--7-------------------7-
A|--------------------------
E|--------------------------

E|--------------------------
H|--------------------------
G|------4-5---4-------------
D|-7--7---------7-5---------
A|--------------------------
E|--------------------------

koniec
E|----------
H|----------
G|----------
D|-5--5--7--
A|-5--5--7--
E|-3--3--5--

RRRÖÖÖÖAAARRRR!!!!!
Dodał: mroovek, 2014-03-22 11:39
Opracowania video z komentarzy

Dodaj komentarz ...i/lub link do filmiku video

Zaloguj się do serwisu
Ostatnie komentarze
1.
zurawie
2014-03-26 13:41
Bardzo przydatne
Wszelkie materiały i wypowiedzi zamieszczone na www.chords.pl są własnością ich autorów.