Zacznij systematycznie uczyć się grać na gitarze razem ze stroną Moja nauka - będziesz miał/miała do niej dostęp po zalogowaniu się w serwisie

Forgotten - Avril Lavigne

Opracował -a: nataliary,
Pochodzi z: http://www.chords.pl
Data publikacji: 2005-10-03 11:49
 
Moja nauka


Ups, problem :-/
Zaloguj się Mój śpiewnik
INTRO
e|-------------------------------------------------------------------------|
B|----------------------------------------------------------------7-7-7-7--|
G|5-5-5-5--8-8-8-8--7-7-7-7------------5-5-5-5--8-8-8-8--7-7-7-7--7-7-7-7--|
D|5-5-5-5--8-8-8-8--7-7-7-7--5-5-5-5---5-5-5-5--8-8-8-8--7-7-7-7--5-5-5-5--|
A|3-3-3-3--6-6-6-6--5-5-5-5--5-5-5-5---3-3-3-3--6-6-6-6--5-5-5-5-----------|
E|---------------------------3-3-3-3---------------------------------------|


e|-------------------------------------------------------------------------|
B|-------------------------------------------------------------------------|
G|5-5-5-5--8-8-8-8--7-7-7-7--5-5-5-5-----------5---------------------------|
D|5-5-5-5--8-8-8-8--7-7-7-7--5-5-5-5-----------5--hold---------------------|
A|3-3-3-3--6-6-6-6--5-5-5-5--5-5-5-5-----------3---------------------------|
E|---------------------------3-3-3-3---------------------------------------|

Chorus:

e|-------------------------------------------------------------------------|
B|------------------8-8-8-8--5-5-5-5---------------------------------------|
G|5-5-5-5--8-8-8-8--8-8-8-8--5-5-5-5-----------5---------------------------|
D|5-5-5-5--8-8-8-8--6-6-6-6--3-3-3-3----3X-----5--hold---------------------|
A|3-3-3-3--6-6-6-6-----------------------------3---------------------------|
E|-------------------------------------------------------------------------|



Repeat WHOLE Verse 1X

Repeat WHOLE Chorus 1X

Bridge:
e|-------------------------------------------------------------------------|
B|-------------------------------------------------------------------------|
G|5-5-5-5-5-5-5-5----8-8-8-8-8-8-8-8----7-7-7-7-7-7-7-7----5-5-5-5-5-5-5-5-|
D|5-5-5-5-5-5-5-5----8-8-8-8-8-8-8-8----7-7-7-7-7-7-7-7----5-5-5-5-5-5-5-5-|
A|3-3-3-3-3-3-3-3----6-6-6-6-6-6-6-6----5-5-5-5-5-5-5-5----3-3-3-3-3-3-3-3-|
E|-------------------------------------------------------------------------|


e|-------------------------------------------------------------------------|
B|-------------------------------------------------------------------------|
G|5-5-5-5-5-5-5-5----8-8-8-8-8-8-8-8----7-7-7-7-7-7-7-7----5-5-5-5-5-5-5-5-|
D|5-5-5-5-5-5-5-5----8-8-8-8-8-8-8-8----7-7-7-7-7-7-7-7----5-5-5-5-5-5-5-5-|
A|3-3-3-3-3-3-3-3----6-6-6-6-6-6-6-6----5-5-5-5-5-5-5-5----3-3-3-3-3-3-3-3-|
E|-------------------------------------------------------------------------|


e|-------------------------------------------------------------------------|
B|-------------------------------------------------------------------------|
G|5-5-5-5-5-5-5-5----8-8-8-8-8-8-8-8----7-7-7-7-7-7-7-7----5-5-5-5-5-5-5-5-|
D|5-5-5-5-5-5-5-5----8-8-8-8-8-8-8-8----7-7-7-7-7-7-7-7----5-5-5-5-5-5-5-5-|
A|3-3-3-3-3-3-3-3----6-6-6-6-6-6-6-6----5-5-5-5-5-5-5-5----3-3-3-3-3-3-3-3-|
E|-------------------------------------------------------------------------|


e|-------------------------------------------------------------------------|
B|-------------------------------------------------------------------------|
G|5-5-5-5-5-5-5-5----8-8-8-8-8-8-8-8----7-7-7-7-7-7-7-7----5-5-5-5-5-5-5-5-|
D|5-5-5-5-5-5-5-5----8-8-8-8-8-8-8-8----7-7-7-7-7-7-7-7----5-5-5-5-5-5-5-5-|
A|3-3-3-3-3-3-3-3----6-6-6-6-6-6-6-6----5-5-5-5-5-5-5-5----3-3-3-3-3-3-3-3-|
E|-------------------------------------------------------------------------|

Chorus
e|-------------------------------------------------------------------------|
B|------------------8-8-8-8--5-5-5-5---------------------------------------|
G|5-5-5-5--8-8-8-8--8-8-8-8--5-5-5-5---------------------------------------|
D|5-5-5-5--8-8-8-8--6-6-6-6--3-3-3-3----12X--------------------------------|
A|3-3-3-3--6-6-6-6---------------------------------------------------------|
E|-------------------------------------------------------------------------|

End on:

e|-------------------------------------------------------------------------|
B|---5---------------------------------------------------------------------|
G|---5---------------------------------------------------------------------|
D|---3---------------------------------------------------------------------|
A|-------------------------------------------------------------------------|
E|-------------------------------------------------------------------------|

Dodaj komentarz ...i/lub link do filmiku video

Zaloguj się do serwisu
Wszelkie materiały i wypowiedzi zamieszczone na www.chords.pl są własnością ich autorów.