Zacznij systematycznie uczyć się grać na gitarze razem ze stroną Moja nauka - będziesz miał/miała do niej dostęp po zalogowaniu się w serwisie

Złe wujki - Bachor

Dodał -a: azpunk,
Redaktor: Tomek Pietrzkowski,
Data publikacji: 2019-02-03 16:38
 
Moja nauka


Ups, problem :-/
Zaloguj się Mój śpiewnik
Cover Böhse Onkelz—Terpentin

intro

 ----------------           ------------
 ----------------           ------------
 ----------------           ------------
 ----------------           ------------
 -4-3-4--4-3-4-6-  x3       --4-3-1-----
 ----------------           --------4---

 ----------------           ------------
 ----------------           ------------
 ----------------           ------------
 ----------------           --3---------
 -4-3-4--4-3-4-6-  x3       ----6-4-3---
 ----------------           ------------

Później
 -------------
 -------------
 -6--3--------
 -6--3--4--6--   x2
 -4--1--4--6--
 -------2--4--
Dodał: azpunk, 2019-02-03 16:39
Opracowania video z komentarzy

Dodaj komentarz ...i/lub link do filmiku video

Zaloguj się do serwisu
Wszelkie materiały i wypowiedzi zamieszczone na www.chords.pl są własnością ich autorów.