Zacznij systematycznie uczyć się grać na gitarze razem ze stroną Moja nauka - będziesz miał/miała do niej dostęp po zalogowaniu się w serwisie

Gdybym miał gitarę (tabs) - Piosenki Biesiadne

Dodał -a: Wilczyk,
Redaktor: Tomek Pietrzkowski,
Data publikacji: 2008-08-08 00:01
 
Moja nauka


Ups, problem :-/
Zaloguj się Mój śpiewnik


  X = otwarta struna
  ^ = brzaknac strunami w gore
  v = brzaknac strunami w dol

  Capo na pierwszym progu

  1.
   Am                        E                      Am    A7
   v                         v                      v     v
|--X-------------------------X----------------------X-----X--
|--1-------------------------X----------------------1-----2--
|--2-------------------------1----------------------2-----X--
|--2-------------------------2----------------------2-----2--
|--X-------------------------2----------------------X-----X--
|----------------------------X-------------------------------
   Gdybym   mial   gitare,   to   bym   na   niej   gral

   Dm               Am                    E                   Am    A7
   v                v                     v                   v     v
|--1----------------X---------------------X-------------------X-----X--
|--3----------------1---------------------X-------------------1-----2--
|--2----------------2---------------------1-------------------2-----X--
|--X----------------2---------------------2-------------------2-----2--
|--X----------------X---------------------2-------------------X-----X--
|-----------------------------------------X----------------------------
   Opowiedzialbym   o   swej   milosci,   ktora   przezylem   sam

   Dm               Am                   E                   Am  E   Am
   v       v        v         v          v        v          v   v   v
|--1-------1--------X---------X----------X--------X----------X---X---X--
|--3-------2--------1---------1----------X--------X----------1---X---1--
|--2-------2--------2---------2----------1--------1----------2---1---2--
|--X-------X--------2---------2----------2--------2----------2---2---2--
|--X-------X--------X---------X----------2--------2----------X---2---X--
|----------------------------------------X--------X--------------X------
   Opowiedzialbym   o   swej   milosci,  ktora    przezylem  sam

   REFREN:

   Am                                  E                 Am      A7
   v    v ^ v    v ^ v    v ^ v    v ^ v    v ^ v    v ^ v   v   v   v
|--X----X-X-X----X-X-X----X-X-X----X-X-X----X-X-X----X-X-X---X---X---X--
|--1----1-1-1----1-1-1----1-1-1----1-1-X----X-X-X----X-X-1---1---2---2--
|--2----2-2-2----2-2-2----2-2-2----2-2-1----1-1-1----1-1-2---2---X---X--
|--2----2-2-2----2-2-2----2-2-2----2-2-2----2-2-2----2-2-2---2---2---2--
|--X----X-X-X----X-X-X----X-X-X----X-X-2----2-2-2----2-2-X---X---X---X--
|--------------------------------------X----X-X-X----X-X----------------
   A    wszystko te   czar - ne  oczy, gdybym   ja   je  mial

   Dm                Am                E                 Am      A7
   v    v ^ v    v ^ v    v ^ v    v ^ v    v ^ v    v ^ v   v   v   v
|--1----1-1-1----1-1-X----X-X-X----X-X-X----X-X-X----X-X-X---X---X---X--
|--3----3-3-3----3-3-1----1-1-1----1-1-X----X-X-X----X-X-1---1---2---2--
|--2----2-2-2----2-2-2----2-2-2----2-2-1----1-1-1----1-1-2---2---X---X--
|--X----X-X-X----X-X-2----2-2-2----2-2-2----2-2-2----2-2-2---2---2---2--
|--X----X-X-X----X-X-X----X-X-X----X-X-2----2-2-2----2-2-X---X---X---X--
|--------------------------------------X----X-X-X----X-X----------------
  Za    te  czarne,  cudne    oczeta   serce  dusze bym  dal

   Dm                Am                E                 Am  E   Am
   v    v ^ v    v ^ v    v ^ v    v ^ v    v ^ v    v ^ v   v   v
|--1----1-1-1----1-1-X----X-X-X----X-X-X----X-X-X----X-X-X---X---X------
|--3----3-3-3----3-3-1----1-1-1----1-1-X----X-X-X----X-X-1---1---2------
|--2----2-2-2----2-2-2----2-2-2----2-2-1----1-1-1----1-1-2---2---X------
|--X----X-X-X----X-X-2----2-2-2----2-2-2----2-2-2----2-2-2---2---2------
|--X----X-X-X----X-X-X----X-X-X----X-X-2----2-2-2----2-2-X---X---X------
|--------------------------------------X----X-X-X----X-X----------------
  Za    te  czarne,  cudne    oczeta   serce  dusze bym  dal

  2.
   Am                                  E                 Am      A7
   v    v ^ v    v ^ v    v ^ v    v ^ v    v ^ v    v ^ v   v   v   v
|--X----X-X-X----X-X-X----X-X-X----X-X-X----X-X-X----X-X-X---X---X---X--
|--1----1-1-1----1-1-1----1-1-1----1-1-X----X-X-X----X-X-1---1---2---2--
|--2----2-2-2----2-2-2----2-2-2----2-2-1----1-1-1----1-1-2---2---X---X--
|--2----2-2-2----2-2-2----2-2-2----2-2-2----2-2-2----2-2-2---2---2---2--
|--X----X-X-X----X-X-X----X-X-X----X-X-2----2-2-2----2-2-X---X---X---X--
|--------------------------------------X----X-X-X----X-X----------------
  Fajki     ja     nie      pale,      wodki    nie      pije

   Dm                Am                E                 Am      A7
   v    v ^ v    v ^ v    v ^ v    v ^ v    v ^ v    v ^ v   v   v   v
|--1----1-1-1----1-1-X----X-X-X----X-X-X----X-X-X----X-X-X---X---X---X--
|--3----3-3-3----3-3-1----1-1-1----1-1-X----X-X-X----X-X-1---1---2---2--
|--2----2-2-2----2-2-2----2-2-2----2-2-1----1-1-1----1-1-2---2---X---X--
|--X----X-X-X----X-X-2----2-2-2----2-2-2----2-2-2----2-2-2---2---2---2--
|--X----X-X-X----X-X-X----X-X-X----X-X-2----2-2-2----2-2-X---X---X---X--
|--------------------------------------X----X-X-X----X-X----------------
  Ale     z   zalu,  z zalu  wielkiego ledwo     co      zyje

   Dm                Am                E                 Am  E   Am
   v    v ^ v    v ^ v    v ^ v    v ^ v    v ^ v    v ^ v   v   v
|--1----1-1-1----1-1-X----X-X-X----X-X-X----X-X-X----X-X-X---X---X------
|--3----3-3-3----3-3-1----1-1-1----1-1-X----X-X-X----X-X-1---1---2------
|--2----2-2-2----2-2-2----2-2-2----2-2-1----1-1-1----1-1-2---2---X------
|--X----X-X-X----X-X-2----2-2-2----2-2-2----2-2-2----2-2-2---2---2------
|--X----X-X-X----X-X-X----X-X-X----X-X-2----2-2-2----2-2-X---X---X------
|--------------------------------------X----X-X-X----X-X----------------
  Ale     z   zalu,  z zalu  wielkiego ledwo     co      zyje

REFREN

  3.
   Am                                  E                 Am      A7
   v    v ^ v    v ^ v    v ^ v    v ^ v    v ^ v    v ^ v   v   v   v
|--X----X-X-X----X-X-X----X-X-X----X-X-X----X-X-X----X-X-X---X---X---X--
|--1----1-1-1----1-1-1----1-1-1----1-1-X----X-X-X----X-X-1---1---2---2--
|--2----2-2-2----2-2-2----2-2-2----2-2-1----1-1-1----1-1-2---2---X---X--
|--2----2-2-2----2-2-2----2-2-2----2-2-2----2-2-2----2-2-2---2---2---2--
|--X----X-X-X----X-X-X----X-X-X----X-X-2----2-2-2----2-2-X---X---X---X--
|--------------------------------------X----X-X-X----X-X----------------
  Ludzie      mowia        glupi       po  coz  ty  ja   bral

   Dm                Am                E                 Am      A7
   v    v ^ v    v ^ v    v ^ v    v ^ v    v ^ v    v ^ v   v   v   v
|--1----1-1-1----1-1-X----X-X-X----X-X-X----X-X-X----X-X-X---X---X---X--
|--3----3-3-3----3-3-1----1-1-1----1-1-X----X-X-X----X-X-1---1---2---2--
|--2----2-2-2----2-2-2----2-2-2----2-2-1----1-1-1----1-1-2---2---X---X--
|--X----X-X-X----X-X-2----2-2-2----2-2-2----2-2-2----2-2-2---2---2---2--
|--X----X-X-X----X-X-X----X-X-X----X-X-2----2-2-2----2-2-X---X---X---X--
|--------------------------------------X----X-X-X----X-X----------------
  Po cos to dziewcze czarne  figlarne  mocno         pokochal

   Dm                Am                E                 Am  E   Am
   v    v ^ v    v ^ v    v ^ v    v ^ v    v ^ v    v ^ v   v   v
|--1----1-1-1----1-1-X----X-X-X----X-X-X----X-X-X----X-X-X---X---X------
|--3----3-3-3----3-3-1----1-1-1----1-1-X----X-X-X----X-X-1---1---2------
|--2----2-2-2----2-2-2----2-2-2----2-2-1----1-1-1----1-1-2---2---X------
|--X----X-X-X----X-X-2----2-2-2----2-2-2----2-2-2----2-2-2---2---2------
|--X----X-X-X----X-X-X----X-X-X----X-X-2----2-2-2----2-2-X---X---X------
|--------------------------------------X----X-X-X----X-X----------------
  Po cos to dziewcze czarne  figlarne  mocno         pokochal

REFREN
Dodał: jakzagrac, 2013-03-30 17:11
Opracowania video z komentarzy

Dodaj komentarz ...i/lub link do filmiku video

Zaloguj się do serwisu
Ostatnie komentarze
1.
muszimuszi
2015-03-31 14:23
piosenka fajna tylko niewyraźnie napisane:)
2.
gilnata82
2014-01-28 18:42
Klasyka - każdy musi to umieć, będę umieć i ja :)
3.
rodzina123
2009-04-27 08:00
Słowo ROZKMINIĘ nie bardzo pasuje do takiej prostej melodyjki. Pozdrawiam.
4.
Tomek_Z
2009-04-26 13:25
nie potrzebnie dalłem te tab do pierwszej linkijki
5.
Tomek_Z
2009-04-26 13:24
Bardzo źle rozpisał Pan tą piosenkę .... jak rozkminie ja to dam taby bardziej wyraźniej rozpisane. e1 - - 0 - 0 0 - h2 - 1 - 1 - - 0 g3 2 - - - - - - gdy bym miał gi ta rę t0
6.
raskrychu
2008-08-10 20:31
nie prościej było zamiast tych wszystkich X dać 0? (:
Wszelkie materiały i wypowiedzi zamieszczone na www.chords.pl są własnością ich autorów.