Zacznij systematycznie uczyć się grać na gitarze razem ze stroną Moja nauka - będziesz miał/miała do niej dostęp po zalogowaniu się w serwisie

Czerwone jabłuszko - Piosenki Biesiadne

Opracował -a: Magor,
Redaktor: Miłosz,
Pochodzi z: http://www.chords.pl
Data publikacji: 2008-12-29 20:36
 
Moja nauka


Ups, problem :-/
Zaloguj się Mój śpiewnik


Zwrotka

E1| -----5-5------|-5-------------5-|-----5-5-------|-5--------------|
B2|---6------5-8-|----8-6-5--------|---6------5-8-|----8-6-5-6----|
G3|-7-------------|------------7-----|-7-------------|--------------7-|
D4|---------------|-------------------|----------------|----------------|
A5|---------------|-------------------|----------------|----------------|
E6|---------------|-------------------|----------------|----------------|

Ref:
 
E1|------------------------------|-5-6-5-------------------5-|
B2|----5-6-5----------5--------|--------8-6-5----5-6-8----|
G3|-7--------7---6-7----6-----|----------------7------------|
D4|--------------------------7--|-----------------------------|
A5|------------------------------|-----------------------------|
E6|------------------------------|-----------------------------|
 
E1|------------------------------|-5-6-5--------------|
B2|----5-6-5----------5--------|--------8-6-5-------|
G3|-7--------7---6-7----6-----|----------------7-7--|
D4|--------------------------7--|----------------------|
A5|------------------------------|----------------------|
E6|------------------------------|----------------------|
Dodał: rafina, 2013-10-21 10:13
Opracowania video z komentarzy

Dodaj komentarz ...i/lub link do filmiku video

Zaloguj się do serwisu
Ostatnie komentarze
1.
Oniks
2009-09-03 21:09
ZWROTKA: E|--------------------------------------------| H|-----0-0-------0----------0-------0-0-------| G|---0-------2------2-0-----------0-------2---| D|-2-------4------------4-2-----2-------4-----| A|--------------------------------------------| E|--------------------------------------------| REFREN: E|--------------|----------------------| H|-0------------|----------------------| G|----2-0-------|-----0----------------| D|--------4-2-2-|-2-4---4-2--1-2-4-1---| A|--------------|--------------------2-| E|--------------|----------------------| E|---------------------------------------------| H|-0-1-0---------------0-----------------------| G|-------2-0-------0-2--------0----------------| D|-----------4-2-4--------2-4---4-2--1-2-4-1---| A|-------------------------------------------2-| E|---------------------------------------------| E|-----------------------| H|-0-1-0-----------------| G|-------2-0-------0-----| D|-----------4-2-4---4-2-| A|-----------------------| E|-----------------------| (“Mazurek, mazureczek...”) E|-----------------------------------------| H|-0-0-------0-3--1-0--------------1--0----| G|-----0---0-----------2-2-------2------2--| D|-------------------------4---4-----------| / A|-----------------------------------------| E|-----------------------------------------| E|------------------------------------| H|------------0------0-1-0------------| G|-0-0------0----2-0-------2-0--------| D|-----2--2--------------------4-2--2-| /x2 A|------------------------------------| E|------------------------------------| ZWROTKA: Czerwone jabłuszko przekrojone na krzyż Czemu ty dziewczyno krzywo na mnie patrzysz ? REFREN: Gęsi za wodą, kaczki za wodą Uciekaj dziewczyno bo Cię pobodą Ty mi buzi dasz, ja Ci buzi dam Ty mnie nie wydasz, ja Cię nie wydam. Czerwone jabłuszko po ziemi się toczy Tę dziewczynę kocham, co ma siwe oczy Modre oczy miała, modrymi się śmiała Modrymi mrugała bo innych nie miała Tam gdzie czysta woda, tam koniki piją Gdzie ładne dziewczyny, tam się chłopcy biją Nie bijta się chłopcy, dla Boga świętego! Nie wyjdę za wszystkich, ino za jednego UWAGA: - zwrotka i refren – grane/śpiewane na przemian
2.
Magor
2009-01-18 11:54
Sorki za wygląd, ale to jest moj pierwszy tab dodany. Wleicie do notatnkia i bedzie dobrze.
Wszelkie materiały i wypowiedzi zamieszczone na www.chords.pl są własnością ich autorów.