Zacznij systematycznie uczyć się grać na gitarze razem ze stroną Moja nauka - będziesz miał/miała do niej dostęp po zalogowaniu się w serwisie

Cyganeczka Zosia Intro (tab i chwyty) - Piosenki Biesiadne

Opracował -a: dudekziom,
Redaktor: Michasel,
Data publikacji: 2009-05-11 00:01
 
Moja nauka


Ups, problem :-/
Zaloguj się Mój śpiewnik


Intro [ można opuścić ;) ] ciekawy efekt wychodzi kiedy gramy intro po każdej zwrotce..

E|----5-7-5-----5-7-5----0-7-8-5-8-7-5-0-----
H|---6---------5--------3----------------3-1-
G|--7---------5--------4--------------------0
D|-0-----------------------------------------
A|-----------0-----------------0-------------
E|--------------------0----------------------


E|----5-7-5-----5-7-5----0-7-8--5-4-5--------
H|---6---------5--------3--------------------
G|--7---------5--------4---------------------
D|-0-----------------------------------------
A|-----------0----------------------0--------
E|--------------------0---------0------------

zw.

Znałem cyganeczkę Zosię  a
kazali mi ją poślubić   F (grane na III progu) C
lecz me serce nie pozwala, d a
mojej cyganeczki lubić. E a A

lecz me serce nie pozwala,  d a
mojej cyganeczki lubić.  E a


Wszelkie poprawki mile widziane!
opracowując wzorowałem się na filmikach z Youtube głownie na jednym --> http://www.youtube.com/watch?v=KWKQgLYFHJU&feature=related


miłego grania przy ognisku! ;)

Dodaj komentarz ...i/lub link do filmiku video

Zaloguj się do serwisu
Ostatnie komentarze
1.
zuben1245
2011-01-20 16:31
Znałem cyganeczkę Zosię Gm kazali mi ją poślubić - heej F Bb Cm lecz me serce nie pozwala, Cm Gm mojej cyganeczki lubić. D7 Gm lecz me serce nie pozwala, Cm Gm mojej cyganeczki lubić. D7 Gm Teraz jest poprawnie :)
2.
kpolonski
2010-09-29 02:07
sorki chcialem napisac A7 zamiast A4 pomylka .Tak ze sprobuj A7 pozdro jeszcze raz
3.
kpolonski
2010-09-29 02:02
Czesc dzieki za chwyty i taby ale to co ci napisali wczesniej z tym F na trzecim progu czyli G i zamiast A sprobuj zagrac A4 wydaje mi sie ze troche lepiej to brzmi . pozdro !
4.
DIablica_Pro
2010-07-25 10:09
opracowanie dobre Lecz w mojej wersji gram G zamiast F brzmi to lepiej. Zauważyłam to na keyboardzie i gitarze :) Ale jak kto woli xD
5.
TWTomek
2010-02-21 13:14
F (grane na III progu) - razi w oczy ;/ to jest G ;/
6.
dudekziom
2009-05-26 20:04
Dzięki! :) muszę się przyznać iż jestem samoukiem dlatego wybaczcie mi nieznajomość pojęć. pozdro!
7.
jjedrek
2009-05-22 20:32
F-dur grane na trzecim progu to G-dur ;/
Wszelkie materiały i wypowiedzi zamieszczone na www.chords.pl są własnością ich autorów.