Zacznij systematycznie uczyć się grać na gitarze razem ze stroną Moja nauka - będziesz miał/miała do niej dostęp po zalogowaniu się w serwisie

Bieszczadzki trakt - Piosenki Biesiadne

Opracował -a: Montehuma,
Dodał -a: Montehuma,
Redaktor: MartuSka,
Data publikacji: 2009-10-27 18:07
 
Moja nauka


Ups, problem :-/
Zaloguj się Mój śpiewnik


Mam nadzieje że ta tabulatura będzie dobra!



Zwrotka

-----------------------------------------------------------------------------------------------------
--------1--1--1--0----0--0-----1---------1--1--0--0--0-----1---------5--3--1---1--1--0--0--0-----1---
--0--0----------------------2-----2--0------------------2-----2--0----------------------------2-----2
-----------------------------------------------------------------------------------------------------
-----------------------------------------------------------------------------------------------------
-----------------------------------------------------------------------------------------------------

---------------------------------
--1---1--1--0--0--0-----------1--
---------------------2--2--0-----
---------------------------------
---------------------------------
---------------------------------


Refren

-----------------------------------------------------------------------------------------------------
-----1--0-----1--0--1--3--0--1------1--0-----1--0--1--3--0----------1--0-----1--0--1--3------5--3--1-
--0--------2---------------------0--------2-----------------2----0--------2--------------0-----------
-----------------------------------------------------------------------------------------------------
-----------------------------------------------------------------------------------------------------
-----------------------------------------------------------------------------------------------------

----------------------
---1--6--5--3---1--1--
----------------------
----------------------
----------------------
----------------------

Dodaj komentarz ...i/lub link do filmiku video

Zaloguj się do serwisu
Ostatnie komentarze
1.
Mateusz Olechno
2013-10-28 15:21
super ^^ dla mnie lepiej tab się nauczyć niż akordy... bo nie za dobrze gram
Wszelkie materiały i wypowiedzi zamieszczone na www.chords.pl są własnością ich autorów.