Zacznij systematycznie uczyć się grać na gitarze razem ze stroną Moja nauka - będziesz miał/miała do niej dostęp po zalogowaniu się w serwisie

Hej bystra woda (tab) - Piosenki Biesiadne

Opracował -a: Bartek22,
Dodał -a: Bartek22,
Redaktor: Seba,
Pochodzi z: http://www.chords.pl
Data publikacji: 2010-11-15 14:24
 
Moja nauka


Ups, problem :-/
Zaloguj się Mój śpiewnik


Hej bystra woda

E----0--0-----0------0--0-----0-----2--2--0--
H----------4-----2---------4-----2-----------
G--------------------------------------------
D--------------------------------------------
A--------------------------------------------
E--------------------------------------------

E--------------------------------------------
H-3--2---0-----------------------------------
G-----------2--1---2-------------------1---2-
D------------------------2--2---2---4--------
A--------------------------------------------
E--------------------------------------------

E---------2--0---2--2---0--------------------
H------2-------------------3---2---0---------
G--2----------------------------------2—-1--2
D--------------------------------------------
A--------------------------------------------
E--------------------------------------------

E------------------------------2---0---2--2-0
H---------------------------2----------------
G----------------1---2--2--------------------
D-2--2---2---4-------------------------------
A--------------------------------------------
E--------------------------------------------

E--------------------------------------------
H--3---2---0---------------------------------
G-------------2--1---2-----------------------
D--------------------------------------------
A--------------------------------------------
E--------------------------------------------
Dodał: rosapp, 2014-04-23 08:58
Opracowania video z komentarzy

Dodaj komentarz ...i/lub link do filmiku video

Zaloguj się do serwisu
Ostatnie komentarze
1.
majanna85
2014-05-15 15:49
klasyka :D
2.
kacperjanik111
2014-04-14 09:35
Takie to lubię.
3.
lileczka81
2014-04-13 17:42
lubię to bardzo :D
4.
gastoneks
2013-08-23 16:28
Wydaje się dobrze
5.
wikulka12321
2012-09-08 19:50
nie kiepskie:/
6.
Mateusz Wejman
2011-04-13 12:13
spoko
7.
bart2001
2010-12-18 12:18
super
Wszelkie materiały i wypowiedzi zamieszczone na www.chords.pl są własnością ich autorów.