Zacznij systematycznie uczyć się grać na gitarze razem ze stroną Moja nauka - będziesz miał/miała do niej dostęp po zalogowaniu się w serwisie

Kaczuchy (tab) - Piosenki Biesiadne

Opracował -a: mat1083,
Dodał -a: mat1083,
Redaktor: SEBEK1304,
Pochodzi z: http://www.chords.pl
Data publikacji: 2011-07-02 12:26
 
Moja nauka


Ups, problem :-/
Zaloguj się Mój śpiewnik


Intro:
E1|------------------------------------------------------|
H2|------------------------------------------------------|
G3|-0---12--0---12--0--12-0-12-0-12-0-12-0-0-0-0-0-0-----|
D4|------------------------------------------------------|
A5|------------------------------------------------------|
E6|------------------------------------------------------|

Zwrotka:
E1|------------------------------------------------------|
H2|------------------------------------------------------|
G3|-0-0-2-2-----0---0-0-2-2-----0---0-0-2-2-5-5-4-4-2-0--|
D4|---------2-2-------------2-2------------------------3-|
A5|------------------------------------------------------|
E6|------------------------------------------------------|

E1|------------------------------------------------------|
H2|------------------------------------------------------|
G3|-----------------------------------------------9-15---|
D4|-3-3-5-5-0-0-3---3-3-5-5-0-0-3---3-3-5-7-8-5-3--------|
A5|------------------------------------------------------|
E6|------------------------------------------------------|
Dodał: rafina, 2013-10-22 12:48
Opracowania video z komentarzy

Dodaj komentarz ...i/lub link do filmiku video

Zaloguj się do serwisu
Ostatnie komentarze
1.
thearaon
2013-01-26 20:42
To bardziej brzmi jak Kaczuchy e|-----------------|-----------------|-----------------|--------------| H|-----------------|-----------------|-----------------|--------------| G|-----------------|-----------------|-----------------|--------------| D|-----------------|-----------------|-----------------|--------------| A|-0-0-2-2-----0---|-0-0-2-2-----0---|-0-0-2-2-5-5-4---|--4--2--0-----| E|---------2-2-----|---------2-2-----|-----------------|-----------3--| e|-----------------|-----------------|-----------------|--------------| H|-----------------|-----------------|-----------------|--------------| G|-----------------|-----------------|-----------------|--------------| D|-----------------|-----------------|-----------------|--------------| A|-----0-0---------|-----0-0---------|-----0-0-3-3-2---|--2--0--------| E|-3-3-----0-0-3---|-3-3-----0-0-3---|-3-3-------------|--------3--1--| Miłego grania :)
Wszelkie materiały i wypowiedzi zamieszczone na www.chords.pl są własnością ich autorów.