Zacznij systematycznie uczyć się grać na gitarze razem ze stroną Moja nauka - będziesz miał/miała do niej dostęp po zalogowaniu się w serwisie

Sama jo se sama - Piosenki Biesiadne

Opracował -a: kamibal001,
Dodał -a: kamibal001,
Redaktor: Seba,
Data publikacji: 2013-01-20 09:21
 
Moja nauka


Ups, problem :-/
Zaloguj się Mój śpiewnik


Jest to moje pierwsze opracowanie więc proszę o wyrozumiałość :)

g=golpe - uderzenie palcami w pudło

e||---------|---------|---------|---------|---------|
b||---------|---------|---------|---------|---3-----|
g||---------|---------|-2-2---0-|-2-3-2---|-2-----2-|
d||--0---0--|--0---0--|-0-------|---------|-0-------|
a||--0---0--|--0---0--|-0-------|---------|-0-------|
E||---------|---------|---------|---------|---------|

e||---------|---------|---------|---------|---------|---------|
b||---------|---------|---------|---------|---------|---------|
g||---------|---------|----2----|---2---0-|---0-2---|-2-2---0-|
d||--3-2-0--|-0-3---0-|--3---2--|-2-------|-3---0---|-0-------|
a||---------|-0-------|--0------|-0-------|-0-------|-0-------|
E||---------|---------|---------|---------|---------|---------|

e||---------|---------|---------|---------|---------|---------|
b||---------|---3-----|---------|---------|---------|---------|
g||-2-3-2---|-2-----2-|---------|---------|---2-----|---2---0-|
d||---------|-0-------|--3-2-0--|-0-3---0-|-3---2---|-2-------|
a||---------|-0-------|---------|-0-------|-0-------|---------|
E||---------|---------|---------|---------|-----0---|-0-------|

e||---------|---------|---------|---------|---------|
b||---------|---------|---------|---------|-3-------|
g||---------|---------|---------|---------|-2-------|
d||-3-2-0---|-0---0-g-|-0---0-g-|-0---0---|-0-------|
a||-0-------|-0---0-g-|-0---0-g-|-0---0---|-0-------|
E||-----3---|---------|---------|---------|---------|

Dodaj komentarz ...i/lub link do filmiku video

Zaloguj się do serwisu
Ostatnie komentarze
1.
smerfka30
2014-04-15 00:55
fajna nuta :)
Wszelkie materiały i wypowiedzi zamieszczone na www.chords.pl są własnością ich autorów.