Zacznij systematycznie uczyć się grać na gitarze razem ze stroną Moja nauka - będziesz miał/miała do niej dostęp po zalogowaniu się w serwisie

Co to za gospodarz... - Piosenki Biesiadne

Opracował -a: kuba97,
Dodał -a: kuba97,
Redaktor: Seba,
Pochodzi z: http://www.chords.pl/
Data publikacji: 2013-07-05 21:39
 
Moja nauka


Ups, problem :-/
Zaloguj się Mój śpiewnik


Przykładowe słowa:
         C                    G
Co to za gospodarz, co nie ma chałupy
         F           G
co to za dziewczyna, co nie daje wina.

ref.
        C                       G
I znów nieprzespana noc, i znów stracony dzień,
           F       G
sens życia krótki, napijemy się wódki.


A tutaj taby:
ZWROTKA:
E1 -----------------------------------------------------------------------------------
H2 -5-5-5-3--------5-5-5------3-3-----3-3-3--5--6-----5-5-5-3-------------------------
G3 ----------5-5----------5-------------------------------------5-5-------------------
D4 -----------------------------------------------------------------------------------
A5 -----------------------------------------------------------------------------------
E6 -----------------------------------------------------------------------------------
REFREN:
E1 -----------------------------------------------------------------------------------
H2 -5-5-3-----3--------5-5-----3-5-6---------5--6-6----5-5-5-3------------------------
G3 --------5-----5-5--------5-----------7-7---------------------5---------------------
D4 -----------------------------------------------------------------------------------
A5 -----------------------------------------------------------------------------------
E6 -----------------------------------------------------------------------------------




Jest to moje pierwsze opracowanie, więc wątpie że będzie ono zgodne w 
100% czy też nawet w 90%, ale warto było spróbować. 
Jeśli ktoś widzi rażące błędy, prosze zostawcie poprawki w komentarzach. 
Dziękuje pozdrawiam :>
Dodał: kuba97, 2013-07-05 21:40
Opracowania video z komentarzy

Dodaj komentarz ...i/lub link do filmiku video

Zaloguj się do serwisu
Ostatnie komentarze
1.
koksu2400
2015-08-06 15:10
Poprawny tekst: Co to za gospodarz co nie ma chałupy Co to za dziewczyna co nie daje wina Ref. I znowu nie przespana noc, i znowu zmarnowany dzień Czas życia krótki napijemy się wódki
2.
Przemysław
2013-07-06 22:56
Nie wiem jak wam ale mi za chiny ludowe nie pasuje ta melodyjka ref z TAB'ów E1 ----------------------------------------------------------------------------------- H2 -5-5-3-----3--------5-5-3---3-5-3---3-3-5--6-6---5-5-5-5-3------------------------- G3 --------5-----5-5---------5----------------------------------5-5------------------- D4 ----------------------------------------------------------------------------------- A5 ----------------------------------------------------------------------------------- E6 ----------------------------------------------------------------------------------- jak dla mnie to bardziej te TAB pasują :)
3.
Przemysław
2013-07-06 22:34
C G Co to za gospodarz, co nie ma chałupy F G C co to za dziewczyna, co nie daje wina. ref. C G I znów nieprzespana noc, i znów stracony dzień, F G C sens życia krótki, napijemy się wódki. :) i tekst jakiś dziwny :P niepasujący w 100% do linii melodycznej :) aha i tytuł - I znowu nieprzespana noc - to jest poprawny Życzę powodzonka w dalszym tworzeniu aranży :)
Wszelkie materiały i wypowiedzi zamieszczone na www.chords.pl są własnością ich autorów.