Zacznij systematycznie uczyć się grać na gitarze razem ze stroną Moja nauka - będziesz miał/miała do niej dostęp po zalogowaniu się w serwisie

A nie wyszło jabłuszeczkom - Piosenki Biesiadne

Opracował -a: Maglor,
Pochodzi z: http://www.chords.pl
Data publikacji: 2005-07-25 00:13
 
Moja nauka


Ups, problem :-/
Zaloguj się Mój śpiewnik


Gramy dwa razy:

E|--------0-3-3-3-1-0------|
H|-1-1-1--------------3-1--|
G|-------------------------|
D|-------------------------|
A|-------------------------|
E|-------------------------|

Słowa:
I raz: A nie wyszło jabłoneczkom dwie zimy
II raz: Czerwone się jabłuszeczka rodziły

Druga częśc, również grana dwa razy:

E|-3-3-0--3-3-----3-3-0--3-3-------------0-3-3-3-1-0-------|
H|------------3--------------3----1-1-1--------------3-1---|
G|---------------------------------------------------------|
D|---------------------------------------------------------|
A|---------------------------------------------------------|
E|---------------------------------------------------------|

Słowa:
Urwała jabłuszek, urwała dwanaście
I zaniosła jabłuszeczka staroście :)

Dodaj komentarz ...i/lub link do filmiku video

Zaloguj się do serwisu
Ostatnie komentarze
1.
muszimuszi
2015-03-31 14:26
przepraszam, ale prawdziwy tytuł to chyba ,,A nie wyszło JABŁONECZKOM a nie jabłuszeczkom
Wszelkie materiały i wypowiedzi zamieszczone na www.chords.pl są własnością ich autorów.