Zacznij systematycznie uczyć się grać na gitarze razem ze stroną Moja nauka - będziesz miał/miała do niej dostęp po zalogowaniu się w serwisie

Gamy majorowe w tonacji C-dur - Piosenki Biesiadne

Opracował -a: ReTaR,
Redaktor: MartuSka,
Data publikacji: 2007-09-21 18:21
 
Moja nauka


Ups, problem :-/
Zaloguj się Mój śpiewnik


Chciałbym zaprezentować różnego typu gamy majorowe w tonacji C.

Na początek parę słów... Chciałbym nadmienić, że 'tworzenie' gam o tej tonacji nie jest takie trudne... Wystarczy znać prosty schemat (miło by też było jakbyśmy się orientowali co nieco w dźwiękach na progach:P).

Więc, podaje schemat: c-d-e-f-g-a-h-c.

Przejdźmy do sedna sprawy:

g|-----------2-4-5-| |-5-4-2-----------|
d|-----2-3-5-------| |-------5-3-2-----|
a|-3-5-------------| |-------------5-3-|

g|-8-7-5-----------| |-----------5-7-8-|
d|-------8-6-5-----| |-----5-6-8-------|
a|-------------7-5-| |-5-7-------------|

Jak pewnie już zauważyliście, ^^ te dwa powyższe przykłady wrzuciła już gdzieś na 'chords.pl' rodzina123:) I muszę powiedzieć, że dzięki temu zrozumiałem cały ten układ:)

Dalej:

d|---------------9-10-| |-10-9---------------|
a|-3-5-7-8-10-12------| |------12-10-8-7-5-3-|

d|-------------7-9-10-|
a|------7-8-10--------|
e|-8-10---------------|

e|--------------------8-|
h|------------8-10-12---|
g|-------9-10-----------|
d|-10-12----------------|

e|---------------------8-|
h|---------------10-12---|
g|-------9-10-12---------|
d|-10-12-----------------|

Hmm. A teraz może troszke za XII progiem:

e|-------------------19-20-|
h|-13-15-17-18-20-22-------|

e|----------13-15-17-19-20-|
h|-13-15-17----------------|

g|----------------14-16-17-|
d|-------14-15-17----------|
a|-15-17-------------------|

e|----------------17-19-20-|
h|-------17-18-20----------|
g|-17-19-------------------|

e|-------------------19-20-|
h|-------------20-22-------|
g|-17-19-21-22-------------|

e|-------------15-17-19-20-|
h|-13-15-17-18-------------|

d|----------------19-21-22-|
a|-------19-20-22----------|
e|-20-22-------------------|

g|-------------------16-17-|
d|----------15-17-19-------|
a|-------19----------------|
e|-20-22-------------------|

Oczywiści przedstawiłem tylko malutki procent tych możliwości tworzenia gam, ale wydaje mi się, że to^^ powinno wystarczeć (jak na dobry początek).

Z góry dziękuję za czas poświecony przeczytaniu tego opracowania oraz za ewentualne reflekcje;)

Pozdrawiam i życzę miłej gry!

Retar z Ka-ce xD.

Dodaj komentarz ...i/lub link do filmiku video

Zaloguj się do serwisu
Ostatnie komentarze
1.
krzysiek
2010-11-05 19:35
o sorry, zle spojrzałem na podpis strun, owszem jest to C dur ;)) już ją napisałeś wczesniej w opracowaniu tylko zacząłeś od innego progu i innej struny
2.
krzysiek
2010-11-05 19:31
Mistrzu, ta gama co ją wymyśliłeś z kumplem to nic innego jak zwykła F dur ;))
3.
ReTaR
2007-09-23 07:31
Aa. Jeszcze kiedyś z kumplem wymyśliłem taką gamę (co się później okazało też majorowa i też w tonacji C): e|------0-1-3-5-7-8-| |-8-7-5-3-1-0------| h|-1-3----------------| |---------------3-1-| Reasumując, spooro tych gam xD Pozdrawiam!
Wszelkie materiały i wypowiedzi zamieszczone na www.chords.pl są własnością ich autorów.