Zacznij systematycznie uczyć się grać na gitarze razem ze stroną Moja nauka - będziesz miał/miała do niej dostęp po zalogowaniu się w serwisie

4Q - Blitz

Dodał -a: azpunk,
Redaktor: Seba,
Data publikacji: 2016-02-03 12:41
 
Moja nauka


Ups, problem :-/
Zaloguj się Mój śpiewnik

Intro

e|------------    ---|
B|-9-12-10-12-    -9-|
G|-9-9--9--9--    -9-|
D|------------ x2 ---|
A|------------    ---|
E|------------    ---|

Zwrotka

e|---------|
B|---------|
G|---------|
D|---5-3-5-|
A|-3-3-1-3-|
E|-1-------|

Refren

e|-------|
B|-------|
G|-------|
D|---5-3-|
A|-3-3-1-|
E|-1-----|

Dodaj komentarz ...i/lub link do filmiku video

Zaloguj się do serwisu
Wszelkie materiały i wypowiedzi zamieszczone na www.chords.pl są własnością ich autorów.