Zacznij systematycznie uczyć się grać na gitarze razem ze stroną Moja nauka - będziesz miał/miała do niej dostęp po zalogowaniu się w serwisie

Bo tutaj jest jak jest - Borysewicz & Kukiz

Opracował -a: michicybo,
Pochodzi z: http://www.chords.pl
Data publikacji: 2004-11-28 17:56
 
Moja nauka


Ups, problem :-/
Zaloguj się Mój śpiewnik



Wstęp i zwrotka:

 fis           D                  E                cis7
-2---------------------2^3-2-----------------------------------------
-2----2--------------3-------3----------------------------5^7-5------
-2----2^4-2--------2-----------2-------1--1^2-1---------4-4-----4----
-4----4-----4--0---------------------2----2-----2-----6--------------
-4--------------------------------2----------------4-----------------
-2--------------------------------0----------------------------------

 A               fis             E
----------------------------------------0-0-0------------------------
--------2/3-2----2----------------------0-0-0------------------------
------2-2-----2--2----2-2^4-2---------1-2-2-1------------------------
----2------------4--4---4-----4-----2---2-2-2------------------------
-0---------------4---------------2------2-2-2------------------------
-----------------2---------------0------0-0-0------------------------


Zwrotka i refren:

fis  D  E  cis7
A  fis  E



Przejście:

D         E                 fis
Wierzę w to, że przyjdzie czas...     itd.


Po tym jest:

                                                                         }
---------------------------------------------------------------------    }
---------------------------------------------------------------------    }
---------------------------------------------------------------------    }
---------------------------------------------------------------------    }
-----------2-4--5-------------2-4---------------4-5-------------2-4--    }
--2-4-5--5----------5-4---4-5-------4-2---2-4-5-------5-4---4-5------    }
                                                                         }
                                                                         } 2x
---------------------------------------------------------------------    }
---------------------------------------------------------------------    }
---------------------------------------------------------------------    }
---------------------------------------------------------------------    }
--------4-5-------------2-4---------------4-5-------------2-4--------    }
--2-4-5-------5-4---4-5-------4-2---2-4-5-------5-4---4-5------------    }
                                                                         }

A jak w/z tab się zagra, to dalej gitarka akustyczna:

-------------------------------------------14-16-17-16-17-19-
----------------------14-14-------14-15-17-------------------
----13-14-16-13-14-16----16---18-----------------------------
-16----------------------------------------------------------
-------------------------------------------------------------
-------------------------------------------------------------

-17-19-21~---16~-14--
---------------------
---------------------
---------------------
---------------------
---------------------



Refren...


Zakończenie:

fis  D  E  cis7
A  fis  E

Dodaj komentarz ...i/lub link do filmiku video

Zaloguj się do serwisu
Ostatnie komentarze
1.
kuba_oleksy
2008-04-28 16:11
owszem bas gra prymki: D E Fis i po tym są te trzy dźwięki: Fis Gis A i znowu G------------------------------------------------- D------------------------------------------------- A------------------------------------------------- E-10slide--0--2--2-4-5-10slide---------------- itd.
2.
michicybo
2006-02-03 14:32
chytów jakotakich nie ma ale jedzie sie na pojedynczych basowych dzwiekach...
3.
Fubu14
2005-12-31 13:52
a jak tam są chwyty przy "wierze kto..."?? Jest D E fis i tutaj są jakieś przejścia(bodajże 3chwyty),których nie mogę rozpracować:( może ktoś wie??
Wszelkie materiały i wypowiedzi zamieszczone na www.chords.pl są własnością ich autorów.