Zacznij systematycznie uczyć się grać na gitarze razem ze stroną Moja nauka - będziesz miał/miała do niej dostęp po zalogowaniu się w serwisie

V bieg (solo) - Budka Suflera

Opracował -a: lukole21,
Dodał -a: lukole21,
Redaktor: Tomek Pietrzkowski,
Data publikacji: 2009-11-22 00:01
 
Moja nauka


Ups, problem :-/
Zaloguj się Mój śpiewnik


Utwór został napisany w GP
       E   E   E   H         E      Q      E   E   H
E||---------------14--------14--|--14-----------------------|
B||-------15--17----------------|--------/17--15--17--------|
G||--/14------------------------|---------------------------|
D||-----------------------------|---------------------------|
A||-----------------------------|---------------------------|
E||-----------------------------|---------------------------|


  E    E   E   E   Q     Q         E   E   H        Q
------------------14----14----|--------------------------|
----------15--17--------------|--/17--15-----------------|
-----/14----------------------|-----------16-------------|
------------------------------|--------------------------|
------------------------------|--------------------------|
------------------------------|--------------------------|


   E  E   E  E   E   E   E   E      E  E   E  E   E   E   E   E
--------------------------------|--------------------------------|
--15-----15-----15--12--15--17--|--15-----15-----15--12--15--17--|
--14-----14-----14--12--14--16--|--14-----14-----14--12--14--16--|
--------------------------------|--------------------------------|
--------------------------------|--------------------------------|
--------------------------------|--------------------------------|


    H         E   E   E   E      H        H
-----------------------------|---------------------||
--/17--------17--17--15------|---------------------||
-------------------------16--|--14-----------------||
-----------------------------|---------------------||
-----------------------------|---------------------||
-----------------------------|---------------------||

Dodaj komentarz ...i/lub link do filmiku video

Zaloguj się do serwisu
Wszelkie materiały i wypowiedzi zamieszczone na www.chords.pl są własnością ich autorów.