Zacznij systematycznie uczyć się grać na gitarze razem ze stroną Moja nauka - będziesz miał/miała do niej dostęp po zalogowaniu się w serwisie

Zostań jeszcze (tab) - Budka Suflera

Opracował -a: liluchna,
Dodał -a: liluchna,
Redaktor: SEBEK1304,
Pochodzi z: http://www.chords.pl
Data publikacji: 2011-02-05 10:12
 
Moja nauka


Ups, problem :-/
Zaloguj się Mój śpiewnik



Wstęp: (przejście)
a – E       x4
|-------------------7--------------
|--5-5-5-6-5-4-5--5-3-5------------
|----------------------------------
|----------------------------------
|----------------------------------
|----------------------------------             x4

Zwrotka1:
a G E a*    x2
C G d a
C G d E

Ref:   x2
a G E a*
a G E a

Przejście:  x2

Zwrotka2:
a G E a*    x2
C G d a
C G d E

Ref:        x2
a G E a*
a G E a

Przejście:  x4

dłuższe zatrzymanie na E

Ref:        x2
a G E a*
a G E a

Przejście:  x4

Koniec: dwa dzwieki: a a

a*
|-0-0-0-0---0----
|-1-1-1-0h1-0h1--
|-2-2-2-2---2----
|-2-2-2-2---2----
|-0-0-0-0---0----
|-0-0-0-0---0----

Dodaj komentarz ...i/lub link do filmiku video

Zaloguj się do serwisu
Wszelkie materiały i wypowiedzi zamieszczone na www.chords.pl są własnością ich autorów.