Zacznij systematycznie uczyć się grać na gitarze razem ze stroną Moja nauka - będziesz miał/miała do niej dostęp po zalogowaniu się w serwisie

Tylko dla orłów - Budka Suflera

Opracował -a: SolarQueen,
Dodał -a: SolarQueen,
Redaktor: SEBEK1304,
Pochodzi z: http://www.chords.pl/
Data publikacji: 2013-09-28 10:37
 
Moja nauka


Ups, problem :-/
Zaloguj się Mój śpiewnik



Intro:
-|------------------------------------------------|-
-|------------------------------------------------|-
-|------------------------------------------------|-
-|-------------------5-3------------------7-5-----|-
-|--3tr5-5p3-5p3-5p3-----5tr7-7p5-7p5-7p5---------|-
-|------------------------------------------------|-

-|------------------------------------------------|-
-|------------------------------------------------|-
-|------------------------------------------------|-
-|-------------------5-3------------------7-5-----|-
-|--3tr5-5p3-5p3-5p3-----5tr7-7p5-7p5-7p5---------|-
-|------------------------------------------------|-

Zawsze...       d
Cele...         F C d
Świata...       d
Ludzie...       F C d

Przejście:
-|------------------------------------------------|-
-|------------------------------------------------|-
-|------------------------------------------------|-
-|-------------------5-3------------------7-5-----|-
-|--3tr5-5p3-5p3-5p3-----5tr7-7p5-7p5-7p5---------|-
-|------------------------------------------------|-

Sięgaj...       d
Tam...          F C d
Z wielkich ...  d
Duma...         F C d

Wyżej...        F C G d
Pospolitość...  F C
Wyżej...        F C G d
Poczuj...       F A

Ref.
Tylko...        d B F C
Dla...          d B F C
Ten...          d B F C
Kto...          G A

Leć...          d B F C
Tylko...        d B F C
Tylko...        d B F C
Do...           G A

Przejście:
-|------------------------------------------------|-
-|------------------------------------------------|-
-|------------------------------------------------|-
-|-------------------5-3------------------7-5-----|-
-|--3tr5-5p3-5p3-5p3-----5tr7-7p5-7p5-7p5---------|-
-|------------------------------------------------|-

Strzeż...       d
Tych...         F C d
Odkryj...       d
Idź...          F C d

Wyżej...        F C G d
Pospolitość...  F C
Wyżej...        F C G d
Poczuj...       F A

Ref.
Tylko...        d B F C
Dla...          d B F C
Ten...          d B F C
Kto...          G A

Leć...          d B F C
Tylko...        d B F C
Tylko...        d B F C
Do...           G A

Leć...          d B F C
Tylko...        d B F C
Tylko...        d B F C
Do...           G A

Outro:
-|----------------------------------------------------|-
-|----------------------------------------------------|-
-|----------------------------------------------------|-
-|-------------------5-3------------------7-5---------|-
-|--3tr5-5p3-5p3-5p3-----5tr7-7p5-7p5-7p5-------------|-
-|----------------------------------------------------|-

-|----------------------------------------------------|-
-|----------------------------------------------------|-
-|----------------------------------------------------|-
-|-------------------5-3------------------7-5---------|-
-|--3tr5-5p3-5p3-5p3-----5tr7-7p5-7p5-7p5------5-5\---|-
-|---------------------------------------------5-5\---|-
Dodał: SolarQueen, 2013-09-28 10:46
Opracowania video z komentarzy

Dodaj komentarz ...i/lub link do filmiku video

Zaloguj się do serwisu
Ostatnie komentarze
1.
pksprzystanek
2013-12-08 13:36
Zwrotka E-------------------------------------------------------------------------------------------------- B-------------------------------------------------------------------------------------------------- G-10-10-10-7---10-10-10-7---10-10-10-7---10-10-10-7---10-10-10-9---10-10-10-9---9-9-9-7---9-9-9-7-- D-------------------------------------------------------------------------------------------------- A-8--8--8--5---8--8--8--5---8--8--8--5---8--8--8--5---8--8--8--7---8--8--8--7---7-7-7-5---7-7-7-5-- E--------------------------------------------------------------------------------------------------
2.
pksprzystanek
2013-11-04 09:53
Intro i przejście chyba bardziej tak: E-------------------------------------------- B-------------------------------------------- G-------------------------------------------- D-----------------5----------------------7-5- A-8-7-0-5-0-5-0-7---8------7-5-7-5-7-5-8----- E--------------------------------------------
Wszelkie materiały i wypowiedzi zamieszczone na www.chords.pl są własnością ich autorów.