Zacznij systematycznie uczyć się grać na gitarze razem ze stroną Moja nauka - będziesz miał/miała do niej dostęp po zalogowaniu się w serwisie

Bal wszystkich świętych - Budka Suflera

Opracowali: adam4321, apollo200769,
Dodał -a: apollo200769,
Pochodzi z: http://www.koktajlserwis.republika.pl
Data publikacji: 2005-10-15 00:10
 
Moja nauka


Ups, problem :-/
Zaloguj się Mój śpiewnik


ZWROTKA:

a d a E a
a d a G C
C G C G C
C G C E a


REFREN:

a d a d
a d a G


CODA:

a d a d a E a

SOLO:

|----------------------------------------------|
|-----------8----------------------------------|
|---5-7-7b9---7b9-7p5-7b9-7-5p4---------4------|
|-5--------------------------------7---------5-|
|----------------------------------------------|
|----------------------------------------------|

|------------------------------------------------------------|
|-----------------------------------------------------5-8b10-|
|-------------9-9h10-9-7-7h9-5h7-5-4-5h7-5p4------5----------|
|------6---9-----------------------------------7-------------|
|-8-7--------------------------------------------------------|
|------------------------------------------------------------|


Solo dodane przez użytkownika: apollo200769
Dodał: wojtek_n, 2015-04-22 21:52
Opracowania video z komentarzy

Dodaj komentarz ...i/lub link do filmiku video

Zaloguj się do serwisu
Ostatnie komentarze
1.
kaems
2015-07-25 14:55
Jak wygląda bicie w tym utworze ?
2.
kikan
2014-02-02 14:21
Zapraszam serdecznie. Prezentujemy tylko polskie solówki gitarowe. http://www.facebook.com/polskiesolowki
3.
Faree28
2013-11-21 19:02
wlasnie udalo mi sie kupic nareszcie gitare i ztaczac od nowa trenowac :) To wspanialy tez kawalek do trenowania. Ale po jednym zagraniu juz mi palce daja popalic . Mala przerwa i dalej od nowa
4.
tempiciel
2007-05-09 17:50
Do refrenu poprostu trzeba zagrac jeszcze jedno a czy li tak: a d a a d a d a a G
5.
zgodzia
2006-02-10 22:43
Wszystko ok, ale refren powinnien być tak : a d a a d G
6.
rodzina123
2006-01-30 20:21
początek jest oczywiście na górze ... znak / w tym wypadku oznacza bending , czyli podciąganie strun ( 4 kreski - o cały ton , dwie kreski - o pół tonu )
7.
guciol_
2006-01-23 14:23
dobra fajnie ale gdzie tu poczatek na górze czy na dole i co oznacz znak"/"
8.
rodzina123
2006-01-18 18:48
w solówce akordy lecą : C C G G E E a a / / / e----------------/-----/------------/---------------------------- h---------------/8---/------------/------------------------------ g-----5--7--7/----7/----7--5--7/-7----5--4----4-------------- d--5-------------------------------------------7----5-------3--- a---------------------------------------------------------------- e------------------------------------------------------------/---- / e----------------------------------------------------------/------ h-----------5-/-6--5----5--------------------------5--8/-------- g--------4------------7-----7--5--4---7--5-4---5--------------- d-----6-----------------------------------------7----------------- a--7-------------------------------------------------------------- e-----------------------------------------------------------------
Wszelkie materiały i wypowiedzi zamieszczone na www.chords.pl są własnością ich autorów.