Zacznij systematycznie uczyć się grać na gitarze razem ze stroną Moja nauka - będziesz miał/miała do niej dostęp po zalogowaniu się w serwisie

V bieg - Budka Suflera

Opracował -a: gras,
Dodał -a: Struna,
Pochodzi z: http://www.chords.pl
Data publikacji: 2005-07-28 00:03
 
Moja nauka


Ups, problem :-/
Zaloguj się Mój śpiewnik


A   D A E
Czy to tak.....
Czy tylko......

E D A
Ile prawdy.....
Nigdy mnie.....

A E
Nie czując.....
A D
Nie licząc.....
h D E
Okrążamy.......


[solo:] autor: GRAS

E|---------------------|--------------------|
H|-----3--2---------0--|-----3--2--0--------|
G|---2-------2----2----|---2----------2-----|
D|-2-----------2-------|-2---------------4--|
A|---------------------|--------------------|
E|---------------------|--------------------|

E|---------------------------------------------------------|
H|-------------0-------------0--0--------------------------|
G|-2--2--2--2-----2--2--2--2-------2-----------2-----------|
D|-----------------------------------6--4--2-----6--4--2---|
A|---------------------------------------------------------|
E|---------------------------------------------------------|

E|----------------|
H|----------------|
G|----------------|
D|----------------|
A|-0------0--2----| /
E|---0--2------0--| /  x2

Dodaj komentarz ...i/lub link do filmiku video

Zaloguj się do serwisu
Ostatnie komentarze
1.
kacperski3@vp.pl
2008-01-03 20:55
Wstę A E A D hm E A E A E Solo: A E A d hm E A E A E
2.
rodzina123
2006-01-18 19:20
po solówce , a przed zwrotką jest taka zagrywka : d--2-2---------------------------- a--0-0------0----2-2-------0-2-- e-------0-2---2--0-0--0-2------- powt. zwrotka ....
3.
rodzina123
2006-01-18 19:16
sorry - w pierwszym wersie sola po 10/12 powinien być jeszcze dźwięk 10 na strunie H ...
4.
rodzina123
2006-01-18 19:15
solo jest grane tak : e-------9b-9-------------------------9b-9------------------ h----10---------10--- 10/12-----10---------10/12-------- g--9----------------9-----------9--------------------11----- d------------------------------------------------------------- a------------------------------------------------------------- e------------------------------------------------------------- e-------------------------------------------------------------------- h-10-10--10--10-12--10-10--10----10--10b-10b--10-9-------- g------------11--------------------11-----------------------11-9-- d-------------------------------------------------------------------- a-------------------------------------------------------------------- e--------------------------------------------------------------------
Wszelkie materiały i wypowiedzi zamieszczone na www.chords.pl są własnością ich autorów.