Zacznij systematycznie uczyć się grać na gitarze razem ze stroną Moja nauka - będziesz miał/miała do niej dostęp po zalogowaniu się w serwisie

When you're gone - Cranberries, The

Opracował -a: budzik,
Pochodzi z: http://www.chords.pl
Data publikacji: 2005-04-27 00:02
 
Moja nauka


Ups, problem :-/
Zaloguj się Mój śpiewnik


zwr C a e G

 C                         a                        e
E-0-----0-----0-----0-----|0-----0-----0-----0-----|0-----0-----0-----0-----|
B---1-----1-----1-----1---|--1-----1-----1-----1---|--0-----0-----0-----0---|
G-----0-----0-----0-----0-|----2-----2-----2-----2-|----0-----0-----0-----0-|
D-------------------------|------------------------|------------------------|
A-------------------------|------------------------|------------------------|
E-------------------------|------------------------|------------------------|

 G
E-3-----3-----3-----3-----|
B---0-----0-----0-----0---|
G-----0-----0-----0-----0-|
D-------------------------|
A-------------------------|
E-------------------------|



ref C a e F

 C                         a                        e
E-0-----0-----0-----0-----|0-----0-----0-----0-----|0-----0-----0-----0-----|
B---1-----1-----1-----1---|--1-----1-----1-----1---|--0-----0-----0-----0---|
G-----0-----0-----0-----0-|----2-----2-----2-----2-|----0-----0-----0-----0-|
D-------------------------|------------------------|------------------------|
A-------------------------|------------------------|------------------------|
E-------------------------|------------------------|------------------------|

 F
E-1-----1-----1-----1-----|
B---1-----1-----1-----1---|
G-----2-----2-----2-----2-|
D-------------------------|
A-------------------------|
E-------------------------|

Dodaj komentarz ...i/lub link do filmiku video

Zaloguj się do serwisu
Ostatnie komentarze
1.
bartek_lutek
2009-02-06 10:26
capo na 3 progu i dopiero brzmi jak orginał
Wszelkie materiały i wypowiedzi zamieszczone na www.chords.pl są własnością ich autorów.