Zacznij systematycznie uczyć się grać na gitarze razem ze stroną Moja nauka - będziesz miał/miała do niej dostęp po zalogowaniu się w serwisie

Dwie Bajki - Doda

Opracował -a: Patryk,
Redaktor: Tomek Pietrzkowski,
Pochodzi z: http://www.chords.pl
Data publikacji: 2008-09-24 09:49
 
Moja nauka


Ups, problem :-/
Zaloguj się Mój śpiewnik



INTRO

Rozpisane na gitare oryginalne intro, które gra klawisz, trza złapać dobre tempo
E1|------------------------------------------|
B2|-2-4-2-1-----2-------2-4-2-1-1---4--------|
G3|---------3---------------------------1----|  x2
D4|-----------------4------------------------|
A5|------------------------------------------|
E6|------------------------------------------|

Gitara
     b         Fis       Gis     Cis
E1|----------------------------------------------|
B2|-------2---------2----------4---------4-------|
G3|-----3------------------------------6---------|  x2
D4|---3----------4----------6-----6--3-----------|
A5|------------4----------6----------------------|
E6|----------------------------------------------|

Zwrotka
Cis b Fis Gis Cis2 Gis
Cis b Fis Gis Gis

Refren
Cis  b Fis Gis
Cis2 b Fis Gis

Intro

Zwrotka
Refren i na końcu jest B, które jest przejściem do refrenu o ton do góry

Refren o ton do góry
Dis  c Gis B
Dis2 c Gis B

Intro również o ton do góry
c Gis B Dis

Moim zdaniem jest to na pewno lepsze opracowanie od tego co już jest. Na 
pewno nie jest one w 100% zgodne z oryginałem ponieważ ciężko mi wyłapać te 
„ozdobniki”.
Dodałem te opracowanie do Dody ponieważ nie istnieje już Virgin.

Pozdrawiam-Patryk!

Dodaj komentarz ...i/lub link do filmiku video

Zaloguj się do serwisu
Wszelkie materiały i wypowiedzi zamieszczone na www.chords.pl są własnością ich autorów.