Zacznij systematycznie uczyć się grać na gitarze razem ze stroną Moja nauka - będziesz miał/miała do niej dostęp po zalogowaniu się w serwisie

Do kołyski (intro) - Dżem

Opracował -a: Cia,
Redaktor: Tomek Pietrzkowski,
Pochodzi z: http://www.chords.pl
Data publikacji: 2009-02-16 01:41
 
Moja nauka


Ups, problem :-/
Zaloguj się Mój śpiewnik


|--------------1-------|--------------1-------|--------------1-------|--------------1-------|
|--------------3-------|--------------3-------|--------------3-------|--------------3-------|
|--------------4-------|--------------4-------|--------------4-------|--------------4-------|
|--------4----------4--|--------4----------4--|--------4----------4--|--------4----------4--|
|-2--------------------|-0--------------------|----------------------|----------------------|
|----------------------|----------------------|-3--------------------|-2--------------------|



|--------------0-------|--------------0-------|--------------1-------|--------------1-------|
|--------------0-------|--------------2-------|--------------3-------|--------------3-------|
|--------------1-------|--------------2-------|--------------4-------|--------------4-------|
|--------2----------2--|--------2----------2--|--------4----------4--|--------4----------4--|
|-2--------------------|-0--------------------|-2--------------------|-2--------------------|
|----------------------|----------------------|----------------------|----------------------|

Dodaj komentarz ...i/lub link do filmiku video

Zaloguj się do serwisu
Ostatnie komentarze
1.
orzechowka22
2012-05-06 18:44
Tomasem bardzo dobrze to rospisal i ma to brzmienie
2.
Tomassen
2011-06-14 14:04
Cia, skąd ten f tam ci się wziął? Brzmi to masakrycznie, jeśli w ogóle brzmi. Potem nie ma też gis: tam jest e-moll, nie dur, a w następny akord to A-dur, nie e-moll. h h/A h/G h/Fis E-|---------|---------|---------|---------| H-|-----3---|-----3---|-----3---|-----3---| G-|-----4---|-----4---|-----4---|-----4---| D-|---4---4-|---4---4-|---4---4-|---4---4-| A-|-2-------|-0-------|---------|---------| E-|---------|---------|-3-------|-2-------| e A h ---------|---------|---------|---------| -----0---|-----2---|-----3---|-----3---| ---0---0-|---2---2-|-----4---|-----4---| ---------|---------|---4---4-|---4---4-| ---------|-0-------|-2-------|-2-------| -0-------|---------|---------|---------|
Wszelkie materiały i wypowiedzi zamieszczone na www.chords.pl są własnością ich autorów.