Zacznij systematycznie uczyć się grać na gitarze razem ze stroną Moja nauka - będziesz miał/miała do niej dostęp po zalogowaniu się w serwisie

Bailando - Enrique Iglesias

Opracował -a: Jabs,
Dodał -a: Jabs,
Redaktor: Seba,
Data publikacji: 2016-01-29 14:59
 
Moja nauka


Ups, problem :-/
Zaloguj się Mój śpiewnik


Cała piosenka jest tak:

e, C, G, D

Zamiana jest tylko gdy:

Bailando, bailando..

a, C, G, D

Taby to solóweczki na gitarce klasycznej

e|----------------------------------------------------------------------------------|
B|----7-7h8-7-5-8-----7-8p7p5----5-7-7h8-7-5-8--------------------8-7--6/7----------|
G|--9------------------------------------------------777-77---77--------------------|
D|----------------------------------------------------------7-----------------------|
A|----------------------------------------------------------------------------------|
E|----------------------------------------------------------------------------------|

e|--3--5--7--5--3-/7---5-5\3-/7--5-5/3-3----8-8-8-10-8-10p8---7-7------|
B|--5--7--8--7--5-/8---7-7\5-/8--7-7/5-5----8-8-8-8--8-8------8-8-3-3--|
G|----------------------------------------------------------------4-4--|
D|---------------------------------------------------------------------|
A|---------------------------------------------------------------------|
E|---------------------------------------------------------------------|

e|--8-8-7-7-5-5--3-3/2-2~----------------------------------------------|
B|--8-8-8-8-7-7--5-5/3-3~----------------------------------------------|
G|---------------------------------------------------------------------|
D|---------------------------------------------------------------------|
A|---------------------------------------------------------------------|
E|---------------------------------------------------------------------|

Pozdrawiam Jabs
Dodał: wojtek_n, 2017-11-13 21:31
Opracowania video z komentarzy

Dodaj komentarz ...i/lub link do filmiku video

Zaloguj się do serwisu
Wszelkie materiały i wypowiedzi zamieszczone na www.chords.pl są własnością ich autorów.