Zacznij systematycznie uczyć się grać na gitarze razem ze stroną Moja nauka - będziesz miał/miała do niej dostęp po zalogowaniu się w serwisie

Zamek ze szkła - Ewa Farna

Opracował -a: robert15,
Dodał -a: robert15,
Redaktor: Tomek Pietrzkowski,
Pochodzi z: http://www.chords.pl/
Data publikacji: 2016-11-22 08:51
 
Moja nauka


Ups, problem :-/
Zaloguj się Mój śpiewnik


Wstęp:
C B x2


Zwrotka:
C B C B ||
F Gis C ||x2
f g Gis B

Refren:
C Gis B C x2

Zwrotka:
C B C B
F Gis C
f g Gis B

Refren:
C Gis B C x2

Solo:
F Cis Dis F
F Cis Dis G

E|--------13----------------------------------------------------------13~--
H|---/13~----13-14/16-14-13b14r13-------------13-------------------13------
G|--/-----------------------------15-14b15r14----14-14b15r14----14---------
D|-/---------------------------------------------------------15------------
A|-------------------------------------------------------------------------
E|-------------------------------------------------------------------------

E|---/20~-20b21-16--16h18p16-----15b16r15b16r15----15b16r15-----15b16r15b16r15----15b16r15-----------
H|--/------------------------18-----------------16----------16-----------------15----------15--------
G|-/------------------------------------------------------------------------------------------16-----
D|-----------------------------------------------------------------------------------------------17\-
A|---------------------------------------------------------------------------------------------------
E|---------------------------------------------------------------------------------------------------

Refren:
C Gis B C x4

Dodaj komentarz ...i/lub link do filmiku video

Zaloguj się do serwisu
Wszelkie materiały i wypowiedzi zamieszczone na www.chords.pl są własnością ich autorów.