Zacznij systematycznie uczyć się grać na gitarze razem ze stroną Moja nauka - będziesz miał/miała do niej dostęp po zalogowaniu się w serwisie

Ulubiona rzecz (tab) - Ewa Farna

Opracował -a: pomyslowyproducent,
Dodał -a: pomyslowyproducent,
Redaktor: Tomek Pietrzkowski,
Pochodzi z: http://www.chords.pl/
Data publikacji: 2019-01-22 23:03
 
Moja nauka


Ups, problem :-/
Zaloguj się Mój śpiewnik
e|--4--5--4--0----------|
B|----------------------|
G|--------------4--6----|
D|----------------------|
A|----------------------|
E|----------------------|



e|--4--5--4--0--------------------------|
B|--------------------------------------|
G|--------------4--6----------6--6--6---|
D|--------------------------------------|
A|--------------------------------------|
E|--------------------------------------|
Dodał: pomyslowyproducent, 2019-01-22 23:04
Opracowania video z komentarzy

Dodaj komentarz ...i/lub link do filmiku video

Zaloguj się do serwisu
Wszelkie materiały i wypowiedzi zamieszczone na www.chords.pl są własnością ich autorów.