Zacznij systematycznie uczyć się grać na gitarze razem ze stroną Moja nauka - będziesz miał/miała do niej dostęp po zalogowaniu się w serwisie

Spodnie z GS-u - Farben Lehre

Opracował -a: cieszyna,
Redaktor: Tomek Pietrzkowski,
Data publikacji: 2009-03-17 10:47
 
Moja nauka


Ups, problem :-/
Zaloguj się Mój śpiewnik
Intro
------0--------0----------2----------2-----
--------2--------0----------2------3---3---
----2--------------1----------2---2------2-
---2---------2----------4-------0----------
-0----------2----------4-------------------
----------0----------2---------------------

Główny riff
-------------------------------
-------------------------------
-2-2-2------------------7-6-4--
-2-2-2--2-2-2-2--4-4-4--7-6-4--
-0-0-0--2-2-2-2--4-4-4--5-4-2--
--------0-0-0-0--2-2-2---------

Zwrotka
1.                                 2.
----------------------------------|---------------------------------
----------------------------------|---------------------------------
-2-2-2-2-----------------7-7-7-7--|-2-2-2-2-----------------7-7-7-7-
-2-2-2-2-2-2-2-2-4-4-4-4-7-7-7-7--|-2-2-2-2-2-2-2-2-4-4-4-4-7-7-7-7-
-0-0-0-0-2-2-2-2-4-4-4-4-5-5-5-5--|-0-0-0-0-2-2-2-2-4-4-4-4-5-5-5-5-
---------0-0-0-0-2-2-2-2----------|---------0-0-0-0-2-2-2-2---------
 m m m m m m m m m m m m m m m m    m   m   m   m   m   m   m   m

Refren

-------------------------
-------------------------
-4-4-4-4-7-7-7-7---------
-4-4-4-4-7-7-7-7---------
-2-2-2-2-5-5-5-5-5-7-5-4-
-------------------------

------------------------------------
------------------------------------
-4-4-4-4-7-7-7-7--------------------
-4-4-4-4-7-7-7-7-5-5-5-5-7-7-7-7----
-2-2-2-2-5-5-5-5-5-5-5-5-7-7-7-7----
-----------------3-3-3-3-5-5-5-5----


Outro
--------------------------------
--------------------------------
-4-4-4-4-7-7-7-7--------------4-
-4-4-4-4-7-7-7-7-5-5-5-5--4---4-
-2-2-2-2-5-5-5-5-5-5-5-5--4---2-
-----------------3-3-3-3--2-----

Miłego grania

Dodaj komentarz ...i/lub link do filmiku video

Zaloguj się do serwisu
Wszelkie materiały i wypowiedzi zamieszczone na www.chords.pl są własnością ich autorów.