Zacznij systematycznie uczyć się grać na gitarze razem ze stroną Moja nauka - będziesz miał/miała do niej dostęp po zalogowaniu się w serwisie

Pokaż na co cie stać - Feel

Opracował -a: dawidszafarczyk,
Dodał -a: dawidszafarczyk,
Redaktor: SEBEK1304,
Pochodzi z: http://www.chords.pl
Data publikacji: 2011-04-03 14:23
 
Moja nauka


Ups, problem :-/
Zaloguj się Mój śpiewnik



intro:
e-6----2----4----6-----
B-6----2----4----6-----
G-6----3----5----6-----
D-8----4----6----8-----
A-8----4----6----8-----
E-6----2----4----6-----

Zwrotka: w kółko chwyty
e-6----2----4---
B-6----2----4---
G-6----3----5---
D-8----4----6---
A-8----4----6---
e-6----2----4---

Przejście:
e--2----4---2----4---
B--2----4---2----4---
G--3----5---3----5---
D--4----6---4----6---
A--4----6---4----6---
E--2----4---2----4---

Refren:
e--4---4---6---2---4--
B--6---4---8---2---4--
G--6---5---8---3---5--
D--6---6---8---4---6--
A--4---6---6---4---6--
E--4---4---6---2---4--

To są chwyty rozpisane w tabach prosze 
bicie sobie dopasować do piosenki.
Miłego grania:-)

Dodaj komentarz ...i/lub link do filmiku video

Zaloguj się do serwisu
Ostatnie komentarze
1.
dawidszafarczyk
2011-04-09 16:40
Ale pełnymi chwytami lepiej brzmi na klasyku.
2.
Patryk
2011-04-05 21:23
Ale ten utwór grany jest powerchords'ami...a nie pełnymi akordami - tabulatura moim zdaniem bezcelowa i bez sensu.
Wszelkie materiały i wypowiedzi zamieszczone na www.chords.pl są własnością ich autorów.