Zacznij systematycznie uczyć się grać na gitarze razem ze stroną Moja nauka - będziesz miał/miała do niej dostęp po zalogowaniu się w serwisie

Jak anioła głos - Feel

Opracował -a: AngelPunk,
Redaktor: Tomek Pietrzkowski,
Data publikacji: 2008-01-08 00:02, Poprawiono 2009-02-02 19:30
 
Moja nauka


Ups, problem :-/
Zaloguj się Mój śpiewnik



Wstęp.
|---3---3-----0---0----3---3---3--3---
|----3---3-----3---3----3---3---3--3--
|-0---0------0--2-----0--0-------0----
|-----------0-------------------------
|-----------------------------3-------
|3-------------------0----------------

|---3---3-----0---0----3---3---3---3--
|----3---3-----3---3----3---3---3---3-
|-0---0------0--2-----0---0---0---0---
|-----------0-------------------------
|--------------------3----------------
|3------------------------------------


Zwrotka.

Już pod koniec dnia...
G Dsus2 Em C
               (x2)
G Dsus2 C
--------
Refren.

Jak anioła głos.

G Dsus2 Em C
               (x2)
G Dsus2 C
---------

Akord Dsus2
|-----0----
|----3-----
|---2------
|--0-------
|----------
|----------


I tak wkółko :) Miłego grania

Dodaj komentarz ...i/lub link do filmiku video

Zaloguj się do serwisu
Ostatnie komentarze
1.
artix2001
2013-07-16 13:23
Bicie to: dół,góra,góra,dół,góra
2.
artix2001
2013-07-16 13:22
Refren: G D e C G D C *C x2 Zwrotka: G D C G G D C x2 I tak przez cały czas POZDRO!!!!!
3.
Patryk
2009-02-18 11:16
I moim zdaniem akordy: G-dur D-dur E-moll C-dur G-dur D-dur C-dur
4.
Patryk
2009-02-18 11:15
Bicie: dół góra góra dół góra góra dół dół Takie bicie jest na każdym akordzie. Pozdrawiam
5.
Patryk
2009-02-04 16:05
Tych opracowań tu już jest 100 tysięcy...Dajcie jedno porządne. W tym opracowaniu w intro nie zgadzam się z jednym, dwoma dźwiękami i w zwrotce jak na moje ucho grany jest cały D-dur. Dobrze, że są taby i akordy. Nad czym tu się decydować? Jak już coś robić to dobrze!
6.
pilot2312
2008-12-28 19:01
zdecyduj się na jeden zapis albo chwyty albo taba
7.
Seler
2008-01-22 13:24
W pełni poprawne. Tytułtej piosenki to "Jak anioła głos". Ktoś powinien zastąpić tym te dwie wersje, które są niepoprawne.
Wszelkie materiały i wypowiedzi zamieszczone na www.chords.pl są własnością ich autorów.