Zacznij systematycznie uczyć się grać na gitarze razem ze stroną Moja nauka - będziesz miał/miała do niej dostęp po zalogowaniu się w serwisie

Piraci z Karaibów He's Pirate (główny motyw) - Film Themes

Dodał -a: kimcio,
Redaktor: zuzaa,
Data publikacji: 2010-02-02 11:45
 
Moja nauka


Ups, problem :-/
Zaloguj się Mój śpiewnik


Część 1:

|------------------------------------|
|-------------5-6-6-6-8-5-5----------|
|--2\5--7-7-7---------------7-5-5h7--|
|------------------------------------|
|------------------------------------|
|------------------------------------|

|--------------------------------|
|------------5-6-6-6-8-5-5-------|
|----5-7-7-7---------------7-5-7-|
|--7-----------------------------|
|--------------------------------|
|--------------------------------|

|--------------------5-6-6-5---5---|------------5---|----------------|
|------------6-8-8-8---------8-----|----5-6-6-8-----|----6-5-5-------|
|----5-7-7-7---------------------7-|--7-----------7-|--7-------7-5-7-|
|--7-------------------------------|----------------|----------------|
|----------------------------------|----------------|----------------|
|----------------------------------|----------------|----------------|

Część 2:

|------------------------------------|
|-------------5-6-6-6-8-5-5----------|
|--2\5--7-7-7---------------7-5-5h7--|
|------------------------------------|
|------------------------------------|
|------------------------------------|

|--------------------------------|
|------------5-6-6-6-8-5-5-------|
|----5-7-7-7---------------7-5-7-|
|--7-----------------------------|
|--------------------------------|
|--------------------------------|

|--------------------5-6-6-5---5---|------------5---|
|------------6-8-8-8---------8-----|----5-6-6-8-----|
|----5-7-7-7---------------------7-|--7-----------7-|
|--7-------------------------------|----------------|
|----------------------------------|----------------|
|----------------------------------|----------------|

|-----------------------------5-------6---------------|
|----6-5-5---------4/5--6-6-8---6-------6-------------|
|--7-------7-5-7-7----------------7-------7---------7-|
|-----------------------------------7-------8-7-7-8---|
|-----------------------------------------------------|
|-----------------------------------------------------|

Część 3:

|-----------------|-------------|-----------------|-----------|
|--10-10-10-11-10-|--8-8-8-8-10-|--10-10-10-11-10-|--5/8-6-5-3|
|--10-10-10-10-10-|--9-9-9-9-9--|--10-10-10-10-10-|--6/9-7----|
|-----------------|-------------|-----------------|-----------|
|-----------------|-------------|-----------------|-----------|
|-----------------|-------------|-----------------|-----------|

|-------------------------------|-------------------------------|
|---------8-10-8---------8-10-8-|-----8-10-8--------------------|
|--7-9-10--------10-9-10--------|--10--------10-9-10-9-7-9----7-|
|-------------------------------|--------------------------10---|
|-------------------------------|-------------------------------|
|-------------------------------|-------------------------------|

|-------------------------------|-------------------------------|
|--------------8----8-10-8------|---------8-10-11---8-----------|
|--7-9-10-9-10---10--------10-7-|--7-9-10---------7---10-9----7-|
|-------------------------------|--------------------------10---|
|-------------------------------|-------------------------------|
|-------------------------------|-------------------------------|

|---------------------------------|
|--10-11-10-10-10-10/8-8-6-5-6-5-3|
|--10-10-10-10-10-10--------------|    X2
|---------------------------------|
|---------------------------------|
|---------------------------------|

|------------|------------|---------------8------|--------------|
|---------10-|---------11-|---------10-10---10-8-|--8-6-5-6-5-3-|
|--7-9-10----|--7-9-10----|--7-9-10--------------|--------------|
|------------|------------|----------------------|--------------|   X2
|------------|------------|----------------------|--------------|
|------------|------------|----------------------|--------------|
Dodał: zz76zz, 2013-12-03 22:25
Opracowania video z komentarzy

Dodaj komentarz ...i/lub link do filmiku video

Zaloguj się do serwisu
Ostatnie komentarze
1.
Lechu
2013-06-25 00:20
Ciekawe opracowanie
Wszelkie materiały i wypowiedzi zamieszczone na www.chords.pl są własnością ich autorów.