Zacznij systematycznie uczyć się grać na gitarze razem ze stroną Moja nauka - będziesz miał/miała do niej dostęp po zalogowaniu się w serwisie

Żałuje - Ewelina Flinta

Opracował -a: adus242,
Dodał -a: adus242,
Redaktor: Tomek Pietrzkowski,
Pochodzi z: http://www.chords.pl/
Data publikacji: 2018-12-02 19:48
 
Moja nauka


Ups, problem :-/
Zaloguj się Mój śpiewnik


Opracowanie by K@rtoflex & adus242 :)


e                         C                       G                       C

E#|----------------------||----------------------||----------------------||----------------------|
H#|----------3p1---------||----------3p1---------||----------3p1---------||----------3p1---------|
G#|------0---------------||------0---------------||------0---------------||------0---------------|
D#|----------------------||----------------------||----------------------||----------------------|
A#|----------------------||---3------------------||----------------------||---3------------------|
E#|---0------------------||----------------------||---3------------------||----------------------|

e                         C                       G                       D

E#|----------------------||----------------------||----------------------||----------------------|
H#|----------3p1---------||----------3p1---------||----------0-----------||---3----------3-------|
G#|------0---------------||------0---------------||--------------0-------||------2---------------|
D#|----------------------||----------------------||------0---------------||----------0-----------|
A#|----------------------||---3------------------||----------------------||----------------------|
E#|---0------------------||----------------------||---3------------------||----------------------|

2x a                      C                       D                       2x a

E#|-----------0----------||----------------------||----------------------||-----------0----------|
H#|--------------0-------||-----------1----------||-----------3----------||--------------0-------|
G#|------0----------2----||-------0-------0------||-------2-------2------||------0----------2----|
D#|----------------------||----------------------||---0------------------||----------------------|
A#|---0------------------||----3-----------------||----------------------||---0------------------|
E#|----------------------||----------------------||----------------------||----------------------|


D

E#|------2------------------|
H#|------3------------------|
G#|------2------------------|
D#|-------------------------|
A#|-------------------------|
E#|-------------------------|





Zwrotka 1.
e C G C
e C G D
e C G C
e C G D
a C D a D

Refren:
e D C D
a h C D
e D C D
a h C D
e D G C
e D G C
H

Zwrotka 2.
e C G C
e C G D
e C G C
e C G D
a C D a h

Refren:
e D C D...

Koniec:
C G C
G D
C G a
h
e D G C
e D G C
e D G C
e D G C
H
Całkiem sam... H
Dodał: adus242, 2018-12-02 19:49
Opracowania video z komentarzy

Dodaj komentarz ...i/lub link do filmiku video

Zaloguj się do serwisu
Wszelkie materiały i wypowiedzi zamieszczone na www.chords.pl są własnością ich autorów.