Zacznij systematycznie uczyć się grać na gitarze razem ze stroną Moja nauka - będziesz miał/miała do niej dostęp po zalogowaniu się w serwisie

Sweet Child O' Mine - Guns N' Roses

Opracował -a: siarra,
Redaktor: Miłosz,
Data publikacji: 2006-01-12 00:10
 
Moja nauka


Ups, problem :-/
Zaloguj się Mój śpiewnik



intro solo: D / C / G / D

E1|-------------15----14----------------15----14------|
H2|----15----------------------15---------------------|
G3|-------14-12----14----14-------14-12----14----14---|
D4|-12----------------------12------------------------|
A5|---------------------------------------------------|
E6|---------------------------------------------------|

E1|-------------15----14----------------15----14------|
H2|----15----------------------15---------------------|
G3|-------14-12----14----14-------14-12----14----14---|
D4|-14----------------------14------------------------|
A5|---------------------------------------------------|
E6|---------------------------------------------------|

E1|-------------15----14----------------15----14------|
H2|----15----------------------15---------------------|
G3|-12----14-12----14----14-12----14-12----14----14---|
D4|---------------------------------------------------|
A5|---------------------------------------------------|
E6|---------------------------------------------------|

E1|-------------15----14----------------15----14------|
H2|----15----------------------15---------------------|
G3|-------14-12----14----14-------14-12----14----14---|
D4|-12----------------------12------------------------|
A5|---------------------------------------------------|
E6|---------------------------------------------------|

w końcówce:
E1|-12----------12----14----15----14----12------------|
H2|-------15----------------------------------15====--|
G3|----14----14----14----14----14----14----14---------|
D4|---------------------------------------------------|
A5|---------------------------------------------------|
E6|---------------------------------------------------|


bas solo:
G3|-------11----11-12--14--16-14-12-11-----------12--------|
D4|---12-----12------------------------12-0--10------10----|
A5|-12-----------------------------------------------------|
E6|--------------------------------------------------------|

G3|-10-9----10-9---------------------12--------12-11----12--11----|
D4|------10------10-0---------12-----------12--------12--------12-|
A5|--------------------10-----------------------------------------|
E6|---------------------------------------------------------------|

zwrotka:

 D
She's ...
   C
Reminds....
  G
Where everything
             G           D
Was as......
  D
Now and....
   C
She takes....
  G
And is...
            G            D
I'd ...


refren:
a       C           D
.............Sweet......
a       C           D
.............Sweet.......


akodry pod solo:

E5 / C5 / H5 / A5 / E5.... a później E5 / G5 / A5 / C5 / D5->G5/ E5

później:
  E5
Where......
 G5
Where....... 
 A5            C5  D5->G5
Where........ 


- w orginale wszystko jest grane o pół tonu niżej!!!

Dodaj komentarz ...i/lub link do filmiku video

Zaloguj się do serwisu
Ostatnie komentarze
1.
Grudzik
2012-02-29 19:32
To prawda, bo GnR się stroją pod Dis. Czyli przestrój gitarę i będzie git;)
2.
jaho98
2012-02-27 20:46
mi się wydaje, że tonacja jest o pół tonu za wysoka...
3.
debocik
2010-07-30 23:41
A można by prosić o taby tego głównego solo? : )
4.
punio1991
2010-05-09 14:57
Mógłby ktoś napisać jak to kostkować intro ? Nauczyłem się tylko od strony strun cienkich , ale coś czuję że to nie tak.
5.
rodzina123
2006-12-18 18:10
Filmik z intro do tej piosenki w nieco zwolnionym tempie nagrałem . Jest w - youtube.com/profile?user=rodzina123 Pozdrawiam .
6.
maly91
2006-11-22 19:25
Witam. Chciałem się poradzić w pewnej sprawie. Jak zagrać dźwięk oznaczany na tabulaturze r? Jak go nazwać?
7.
rodzina123
2006-05-10 16:49
Juz po wakacjach będę miał przygotowany własny kurs gry blues - rockowej na gitarę elektryczną , oparty o rockowy repertuar i wyjaśniający technikę i typowe zagrywki za pomocą tabulatur i nagrań mp3 ...na razie zgrywam pierwsze lekcje i pisze pierwsze taby z ćwiczeniami ... będzie jasno tłumaczone ( jako nauczyciel z zawodu mam praktykę ) i niezbyt trudno grane ( bez " popisów " ) - wszystko w zwolnionym tempie ... z pulsem ( automat ) ... Tworząc ten kurs oparłem się na moim autorskim programie " Nauka gry na gitarze " , który był moją pracą dyplomową na podyplomowych studiach muzycznych . Będzie zatytułowany " SOUNDRIVER - rodzina123 - kurs gry blues - rockowej na gitarze elektrycznej " Zaręczam , że będzie się można z niego dość szybko nauczyć grac typowo rockowo ( oczywiście najlepiej to mieć " żywego " nauczyciela ) Pozdrawiam serdecznie !
8.
nirvanek89
2006-05-10 10:04
pozwolę się wtrącic do rozmowy pauli i rodziny123 : również podzielam Waszą fascynację gitarą elektryczną!!! :))) aż mnie ciarki po plecach czasem przechodzą gdy słyszę spokojne wstępy takich piosenek jak Sappy, lub Smells Like Teen Spirit a potem ten przester...:D mam 17 lat jetsem samouczkiem, póki co musze się zadowolić gitarą akustyczną, ale elektryk mi się maży :) niestety, za slaby poki co jestem :( gram na gitarze 2 miesiace czasu i jak na razie ograniczam sie do prostych"ogniskowych" piosenek, takich jak np. "Przezyj to sam", "Rape me", Happysad - Ja do ciebie no i oczywiscie moje ukochane "Last Kiss" zespołu Pearl Jam :D pozdrawiam wszystkich
9.
dziq
2006-03-24 17:03
Może po prostu źle odebrałem twojego posta. Jeżeli tak to przepraszam, sprawy nie było :]
10.
rodzina123
2006-03-24 15:23
ależ oczywiście ja ciebie wcale nie lekceważę ... sorry - jeśli tak to odebrałeś ... piszę , że moim zdaniem popełniłeś błąd , piszę , że moim zdaniem nie jesteś znawcą - ale to nie znaczy , że cię lekceważę ...jeszcze raz przepraszam - nie chciałem cię urazić ! swoje poczatki pamiętam - tylko wtedy nie było jeszcze Internetu ( mało kto miał kompa w domu ) - nie było możliwości uczenia się przez sieć , ani też dzielenia się z innymi swoimi pomysłami ... a co do akordów - to w opracowaniu są chyba dobre ( nie sprawdzałem z nagraniem ) - tylko ten a-moll tam nie pasował do melodii ... pozdrawiam serdecznie ! PS twoja propozycja akordów w refrenie jest chyba w innej tonacji ...transponowanie do innych tonacji jest dopuszczalne ze względów na możliwosci głosowe wokalu , ale często trochę zatraca się oryginalne brzmienie utworu ...
Wszelkie materiały i wypowiedzi zamieszczone na www.chords.pl są własnością ich autorów.