Zacznij systematycznie uczyć się grać na gitarze razem ze stroną Moja nauka - będziesz miał/miała do niej dostęp po zalogowaniu się w serwisie

Ostatni blok w naszym mieście - Happysad

Opracował -a: Themer,
Dodał -a: biskup,
Data publikacji: 2005-05-21 00:19
 
Moja nauka


Ups, problem :-/
Zaloguj się Mój śpiewnik


przechodzisz... e G H e a

ale krok... G H e

niesię cię... G a e G D


Po refrenie:
                                                            x2
e|-----------------------------7-5-------------------------||
b|-5-5--5-5-5-5-8-8-8--8-8-8-8-----7--7-7-7---7-7-7--7-8-7-||
g|---------------------------------------------------------||
d|---------------------------------------------------------||
a|---------------------------------------------------------||
e|---------------------------------------------------------||


Po 2 zwrotce:

e|------------|------------|------------|--------7-5--------||
b|-8---5--8-5-|-8---5--8-5-|-8---7--8-7-|-8--8-7-----8-7----||
g|------------|------------|------------|-------------------||
d|------------|------------|------------|-------------------||
a|------------|------------|------------|-------------------||
e|------------|------------|------------|-------------------||

e|------------|------------|------------|-------------------||
b|-8---5--8-5-|-8---5--8-5-|-7----------|-------------------||
g|------------|------------|------------|-------------------||
d|------------|------------|------------|-------------------||
a|------------|------------|------------|-------------------||
e|------------|------------|------------|-------------------||


e|-7----5-----|------------|------------|-------------------||
b|---------8--|-7----5--8--|-7----------|-4-4---------------||
g|------------|------------|------------|-------------------||
d|------------|------------|------------|-------------------||
a|------------|------------|------------|-------------------||
e|------------|------------|------------|-------------------||

-
e|-7----5-----|------------|------------|-------------------||
b|---------8--|-7-----5--8-|-7----------|-------------------||
g|------------|------------|------------|-------------------||
d|------------|------------|------------|-------------------||
a|------------|------------|------------|-------------------||
e|------------|------------|------------|-------------------||

Dodaj komentarz ...i/lub link do filmiku video

Zaloguj się do serwisu
Ostatnie komentarze
1.
lordaxis
2007-03-20 13:02
Pierwsza solówka wygląda troszeczke inaczej: --------------------------------5-7------------------------- --5-5---5-5-5-5--7-8-8--8-8-8-8------7--7-7-7--7-7-7--7-8- ------------------------------------------------------------------ -7-5-7-----------------------------------------------------------
Wszelkie materiały i wypowiedzi zamieszczone na www.chords.pl są własnością ich autorów.