Zacznij systematycznie uczyć się grać na gitarze razem ze stroną Moja nauka - będziesz miał/miała do niej dostęp po zalogowaniu się w serwisie

Jeszcze, jeszcze - solo - Happysad

Opracował -a: MkKciuk,
Redaktor: Tomek Pietrzkowski,
Pochodzi z: http://www.chords.pl
Data publikacji: 2008-01-17 08:34
 
Moja nauka


Ups, problem :-/
Zaloguj się Mój śpiewnik


1:12 - 1:28

||----------17-----|--15--14--15p14---------|-----------------------|
||-14--15----------|-----------------15/10--|-17----17--15--14--15--|
||-----------------|------------------------|-----------------------|
||-----------------|------------------------|-----------------------|
||-----------------|------------------------|-----------------------|
||-----------------|------------------------|-----------------------|

|--14----14--14--14--|--12------------------|----------17-----|
|--------------------|------15--14--15--14--|-14--15----------|
|--------------------|----------------------|-----------------|
|--------------------|----------------------|-----------------|
|--------------------|----------------------|-----------------|
|--------------------|----------------------|-----------------|

|--15--14--15p14---------|-----------------------|
|-----------------15/10--|-17----17--15--14--15--|
|------------------------|-----------------------|
|------------------------|-----------------------|
|------------------------|-----------------------|
|------------------------|-----------------------|

|--14----14--14--14--|--12------------|
|--------------------|------15--14----|
|--------------------|----------------|
|--------------------|----------------|
|--------------------|----------------|

2:39 - 2:55

||-----------------|------------------------|---------------------|
||----------10-----|--8--7--8p7-------------|---------------------|
||--6--7-----------|-------------7----------|--9--9--7--6--7------|
||-----------------|----------------7-------|---------------------|
||-----------------|------------------------|---------------------|
||-----------------|------------------------|---------------------|

|---------------|----------------------|-----------------|
|-7---7-7-7-----|--5---7--6--7--6------|----------10-----|
|---------------|----------------------|--6--7-----------|
|---------------|----------------------|-----------------|
|---------------|----------------------|-----------------|
|---------------|----------------------|-----------------|

|------------------------|---------------------|
|--8--7--8p7-------------|---------------------|
|-------------7----------|--9--9--7--6--7------|
|----------------7-------|---------------------|
|------------------------|---------------------|
|------------------------|---------------------|

|---------------|-----------|
|-7---7-7-7-----|--5---7--6-|
|---------------|-----------|
|---------------|-----------|
|---------------|-----------|
|---------------|-----------|

Dodaj komentarz ...i/lub link do filmiku video

Zaloguj się do serwisu
Ostatnie komentarze
1.
smolarek30
2008-12-20 15:18
a ta wstawka jest dobrze tylko moim zdaniem powinna się kończyć na 9 progu
2.
smolarek30
2008-12-20 15:15
w tej piątej przegrudce powinno być tak E-------------- H--5---------- G----7-6-7-6- D------------- A------------- E------------- czyli o strune niżej... ale to pewnie tylko niedopatrzenie
3.
smolarek30
2008-12-20 15:11
moim zdaniem jest mały bład. w drugiej części solówki
4.
Martines1989
2008-01-24 20:37
0;31-0;39 G--11---11-11--11-12-11----11--11-11--11-12----14-12-11---11-12--12-11-7~~~~-----| nie jestem pewien czy dobrze ale mysle ze jakos tak idzie ta wstawka bo tylko jej w twoich brakuje
5.
MkKciuk
2008-01-19 20:56
Nagrałem filmik na YT przy okazji :) Wiem że w sumie mało ambitne ale od czegoś trzeba zacząć rozpisywanie ze słuchu... http://www.youtube.com/watch?v=HN0X_k5488A
6.
Dejw
2008-01-17 19:15
wydaje mi się że jest ok :) tzn nie grałem ani nie sprawdzałem z piosenką, ale tak z głowy to nie pamiętam tylko czy te pull-offy tam były. też to kiedyś rozpisałem ale chyba nie wrzuciłem nie chordsy.
7.
MkKciuk
2008-01-17 17:23
Moje pierwsze opracowanie, mam nadzieję, że jest ok. :) Grane przez Łukasza Ceglińskiego na przesterze i delayu. pozdro Mkkciuk
Wszelkie materiały i wypowiedzi zamieszczone na www.chords.pl są własnością ich autorów.