Zacznij systematycznie uczyć się grać na gitarze razem ze stroną Moja nauka - będziesz miał/miała do niej dostęp po zalogowaniu się w serwisie

Siedem - Hard Times Trio

Opracował -a: greyibanez,
Dodał -a: greyibanez,
Redaktor: Tomek Pietrzkowski,
Pochodzi z: http://www.chords.pl/
Data publikacji: 2018-05-04 09:47
 
Moja nauka


Ups, problem :-/
Zaloguj się Mój śpiewnik


Cały utwór jest grany z KAPO na 1 Progu!

Intro

E|---0--------------0---------------0--------------0------------|
B|-----0--------------0--3-3\1-1------0--------------0--0-0h1-1-|
G|-----------------------4-4\2-2------------------------0-0h2-2-|
D|-2-----2-2-0-2--2---------------2-----2-2-0-2--2--------------|
A|-2--------------2---------------2--------------2--------------|
E|-0--------------0---------------0--------------0--------------|
         pm....                         pm....

E|---0--------------0---------------0--------------0------------|
B|-----0--------------0--3-3\1-1------0--------------0----------|
G|-----------------------4-4\2-2--------------------------------|
D|-2-----2-2-0-2--2---------------2-----2-2-0-2--2-----2-2-0-2--|
A|-2--------------2---------------2--------------2--------------|
E|-0--------------0---------------0--------------0--------------|
         pm....                         pm....         pm....

Potem zwrotka, chyba grana na 12-strunowej lub dwóch gitarach.
Ja gram górne tony następującymi akordami:

   Em  ?   ?   Em
E|-3-|-5-|-5-|-3-|
B|-5-|-5-|-3-|-5-|
G|-4-|-4-|-4-|-4-|
D|---|---|---|---|
A|---|---|---|---|
E|---|---|---|---|

Ewentualnie można grac na niższych tonach tak:

   Em  ?   ?   Em
E|---|---|---|---|
B|---|---|---|---|
G|-0-|-2-|-2-|-0-|
D|-2-|-2-|-0-|-2-|
A|-2-|-2-|-2-|-2-|
E|-0-|-0-|-0-|-0-|

Przejście:

   Em  ?                        x3|
E|---|---|--------2-0---3---------|---|---|----------------------|
B|---|---|------------0-----------|---|---|----------------------|
G|-0-|-2-|------4---------5-------|-0-|-2-|--4-5--4-5--4-4--5-5--|
D|-2-|-2-|----4-----------4-)x7---|-2-|-2-|--4-4--4-4--4-4--4-4--|
A|-2-|-2-|-2--------------2-------|-2-|-2-|--2-2--2-2--2-2--2-2--|
E|-0-|-0-|------------------------|-0-|-0-|----------------------|

Refren grany szybko:

   Em   D     C x3|
E|-13-|-11-|--9---|-3-|-5-|
B|-13-|-11-|--9---|-3-|-5-|
G|-13-|-12-|-10---|-5-|-7-|
D|----|----|------|-5-|-7-|
A|----|----|------|-3-|-5-|
E|----|----|------|---|---|

Potem motywy się powtarzają i na końcu gram te akordy:

   Em  ? ?       C   D  x3 |
E|-0-|-7-5-|-2-|-----------|
B|-0-|-5-3-|-3-|-1-1/3-3---|
G|-0-|-4-2-|-0-|-X-X/X-X---|
D|-2-|-----|-4-|-2-2/4-4---|
A|-2-|-----|---|-3-3/5-5---|
E|-0-|-----|---|-----------|

I na końcu Em na otwartych strunach.

Co do opracowania nie jestem na 100% pewien wiec poprawki i sugestie są mile widziane!
Dodał: greyibanez, 2018-05-04 09:49
Opracowania video z komentarzy

Dodaj komentarz ...i/lub link do filmiku video

Zaloguj się do serwisu
Wszelkie materiały i wypowiedzi zamieszczone na www.chords.pl są własnością ich autorów.