Zacznij systematycznie uczyć się grać na gitarze razem ze stroną Moja nauka - będziesz miał/miała do niej dostęp po zalogowaniu się w serwisie

Sic (tab) - Hey

Opracował -a: madnessleen,
Dodał -a: madnessleen,
Redaktor: Seba,
Pochodzi z: http://www.chords.pl/
Data publikacji: 2018-01-13 09:02
 
Moja nauka


Ups, problem :-/
Zaloguj się Mój śpiewnik


Intro:
E-||--------10--12--10---------|---------7-----------7-------|----------10---12--10-----------------|-
B-||-----8---------------8-----|----10------10------------8--|------8-----------------8-------------|-
G-||-9----------------------9--|-8--------------8------------|--9-------------------------9---------|-
D-||---------------------------|-----------------------------|--------------------------------------|-
A-||---------------------------|-----------------------------|--------------------------------------|-
E-||---------------------------|-----------------------------|--------------------------------------|-


E-||----------7---------15---------------||
B-||-----10-------10--------12-----10----||
G-||-8-----------------------------------||
D-||-------------------------------------||
A-||-------------------------------------||
E-||-------------------------------------||


Zwrotka:
e  H (lub H7)
Refren:
e   C   H (lub H7)
Dodał: madnessleen, 2018-01-14 22:26
Opracowania video z komentarzy

Dodaj komentarz ...i/lub link do filmiku video

Zaloguj się do serwisu
Wszelkie materiały i wypowiedzi zamieszczone na www.chords.pl są własnością ich autorów.