Zacznij systematycznie uczyć się grać na gitarze razem ze stroną Moja nauka - będziesz miał/miała do niej dostęp po zalogowaniu się w serwisie

Bóg Honor Ojczyzna (tab) - Husaria

Opracował -a: rybazmarsa88,
Dodał -a: rybazmarsa88,
Redaktor: SEBEK1304,
Data publikacji: 2010-10-13 13:54, Poprawiono 2010-10-14 14:57
 
Moja nauka


Ups, problem :-/
Zaloguj się Mój śpiewnik


intro:
2x
----------------------------------------------------------------------
----------------------------------------------------------------------
----------------------------------------------------------------------
-4--------4------------------------------------4----------------------
-2-222222--22-4-22-5-22--5--------3-2--------2-2----------------------
-------------------------3-333333-5-0-000000-0------------------------

2x (+ refren )
----------------------------------------------------------------------
----------------------------------------------------------------------
----------------------------------------------------------------------
--4------4-6------6-7------7----------4-------------------------------
--2-2222-2-4-4444-4-5-5555-5-5------5-2-------------------------------
-----------------------------3-3333-2---------------------------------

wchodzi II gitara: 2x
------------------------------------------------------------------------
------------------------------------------------------------------------
------------------------------------------------------------------------
------------------------------4-2-----------4-5--4----------------------
-2~~--5-4--2-4-5---------2~~------4-2-4-5~~-------5---------------------
------------------3~~---------------------------------------------------

Zwrotka:

----------------------------------------------------------------------
-----------------------------------------------------------------------
-----------------------------------------------------------------------
--4-----------------------------4----------------5-5-5-2-2-2-----------
--2-2222222222222--2-2-4-5-5--5-2-22222222222222-5-5-5-2-2-2---------
-------------------0-0-2-3-3--3------------------3-3-3-0-0-0---------

2x
----------------------------------------------------------------------
----------------------------------------------------------------------
-------------------4-------------4------------------------------------
--5----------------4-------------4-5----------------------------------
--5----------------2-22222222222-2-5------------------------------------
--3-33333333333333-----------------3----------------------------------


----------------------------------------------------------------------
-----------------------------------------------------------------------
--------------------------------4444-----------------------------------
--5----------------2--2-4-5-5---4444----4------------------------------
--5----------------2--2-4-5-5---2222-----2222-4-2-5~~------------------
--3-33333333333333-0--0-2-3-3------------------------------------------

dalej wszystko się powtarza, na koncu ogrywamy chwyty z intro pojedynczymi dźwiękami

Dodaj komentarz ...i/lub link do filmiku video

Zaloguj się do serwisu
Wszelkie materiały i wypowiedzi zamieszczone na www.chords.pl są własnością ich autorów.