Zacznij systematycznie uczyć się grać na gitarze razem ze stroną Moja nauka - będziesz miał/miała do niej dostęp po zalogowaniu się w serwisie

Nie daj mi odejść (tab) - Ira

Opracował -a: markmb,
Dodał -a: markmb,
Redaktor: SEBEK1304,
Pochodzi z: http://www.chords.pl
Data publikacji: 2011-02-19 10:40
 
Moja nauka


Ups, problem :-/
Zaloguj się Mój śpiewnik



           Zwrotka 1
E|---------------------------------------------------------------------------------------------|
B|---------------------------------------------------------------------------------------------|
G|-3---3-------2----2------3----3---3---3-----8---8----3---3----2-----2--------2-------|
D|---5---5-------3-----0-----3----3---3---3-----8---8----3---3-----3----3----3---3-----|
A|-5-----------3-----------------------------------------------------3--------- -3----------|
E|---------------------------------------------------------------------------------------------|
        Zwrotka 2
E|--------------------------------------------------------------------------------------------|
B|------------------------------------------------------------------------------1-3--4-------|
G|-3----3-------2----2-----3---3---3---3---8---8---3---3------2----2------------------|
D|---5-----5-------3----0----3---3---3---3---8---8---3---3-------3----3----------------|
A|-5------------3--------------------------------------------------3----------------------|
E|-------------------------------------------------------------------------------------------|
    ZWROTKA PO REF
E|----------------------------------------------------------------------------------------------------|
B|--------------------------------3------4-3------3--------8----------3----------2------1-3-4------|
G|--------3-----------2--------3----3-------3----------8-----8----3----0----3----3------------|
D|-----5-----0-----3-----0--3----------------3------8-----------3---------3-------------------|
A|---5----------3------------------------------------------------------------------------------|
E|------------------------------------------------------------------------------------------|
Dodał: markmb, 2011-02-19 10:40
Opracowania video z komentarzy

Dodaj komentarz ...i/lub link do filmiku video

Zaloguj się do serwisu
Wszelkie materiały i wypowiedzi zamieszczone na www.chords.pl są własnością ich autorów.