Zacznij systematycznie uczyć się grać na gitarze razem ze stroną Moja nauka - będziesz miał/miała do niej dostęp po zalogowaniu się w serwisie

Mój dom (tab) - Ira

Opracował -a: petlica,
Dodał -a: petlica,
Redaktor: petlica,
Pochodzi z: http://www.chords.pl
Data publikacji: 2011-09-23 05:33
 
Moja nauka


Ups, problem :-/
Zaloguj się Mój śpiewnik


Intro
|----------------------------------------------|
|----------------------------------------------|
|----------2--------4--------2----------2---4--|
|-4--4-2-4-2--4-2-4-4--4-2-4-2--4-2-x-x-2---4--|
|-4--4-2-4----4-2-4----4-2-4----4-2-x-x-0---2--|
|-2--------------------------------------------|
     PM...    PM...    PM...    PM...

|----------------------------------------------|
|----------------------------------------------|
|----------2--------4--------2----------2---4--|
|-4--4-2-4-2--4-2-4-4--4-2-4-2--x-x-x-x-2---4--|
|-4--4-2-4----4-2-4----4-2-4----x-x-x-x-0---2--|
|-2--------------------------------------------|
     PM...    PM...    PM...


Verse 1
|-------------------------|-------------------------|
|------3------------------|------3------------------|
|------0----2-------------|------0----2-------------|
|-2----0----2-------------|-2----0----2-------------|
|-2----x----0-------------|-2----x----0-------------|
|-0----3------------------|-0----3------------------|


|-------------------------|----------------------0--|
|------3------------------|------3-----------3------|
|------0----2-------------|------0----2---/4---4----|
|-2----0----2-------------|-2----0----2-------------|
|-2----x----0-------------|-2----x----0-------------|
|-0----3------------------|-0----3------------------|

Verse 2
|-------------------------|-------------------------|
|------3------------------|------3------------------|
|------0----2-------------|------0----2-------------|
|-2----0----2-------------|-2----0----2-------------|
|-2----x----0-------------|-2----x----0-------------|
|-0----3------------------|-0----3------------------|


|-------------------------|-------------------------|
|------3------------------|------3------------------|
|------0----2-------------|------0----2-----2-----2-|
|-2----0----2-------------|-2----0----2-----2-----2-|
|-2----x----0-------------|-2----x----0-0-0-0-0-0-0-|
|-0----3------------------|-0----3------------------|


|-------------------------|
|-------------------------|
|-------------------------|
|-4-4-4-4-4-4-------------|
|-2-2-2-2-2-2-------------|
|----------------------3~-|

Ref
|-------------------------|-------------------------|
|------3----3-------------|------------3------------|
|------0----2---2---------|------0-----2--2-2-------|
|-2----0----0---2---------|-2----0-0---0--2-2-------|
|-2----x----0---0---------|-2----x-x------0-0-------|
|-0----3---------------3~-|-0----3-2-------------3~-|

|-------------------------|-------------------------|
|------3----3-------------|--------3---2------------|
|------0----2---2---------|------0-2---2------------|
|-2----0----0---2---------|-2----0-0---2------------|
|-2----x----0---0---------|-2----x-x---0------------|
|-0----3---------------3~-|-0----3-2----------------|


pozdr
petlica

Dodaj komentarz ...i/lub link do filmiku video

Zaloguj się do serwisu
Wszelkie materiały i wypowiedzi zamieszczone na www.chords.pl są własnością ich autorów.