Zacznij systematycznie uczyć się grać na gitarze razem ze stroną Moja nauka - będziesz miał/miała do niej dostęp po zalogowaniu się w serwisie

Peron - Jamal

Opracował -a: kubboo,
Dodał -a: kubboo,
Redaktor: Seba,
Pochodzi z: http://www.chords.pl/
Data publikacji: 2013-10-04 08:13
 
Moja nauka


Ups, problem :-/
Zaloguj się Mój śpiewnik


Strój: Dropped D (DADGBe)

intro:
e||-------------------------||
B||-------------------------||
G||-------------------------||
D||-------------------------||
A||-----3--5--7--7----------||
D||--0--------x-----------x-||


zwrotka
e||--------------------------------|--------------------------||
B||--------------------------------|--------------------------||
G||--------------------------------|--------------------------||
D||--------------------------------|--------------------------||
A||--------7------------5----------|-----3--5--7--7-----------||
D||--7---------x--5---------x------|--0--------x------------x-||


refren (akordy):
e||-------|      e||-------|      e||-------|      e||-------|
B||-------|      B||-------|      B||-------|      B||-------|
G||-------|      G||-------|      G||-------|      G||-------|
D||---3---|      D||---0---|      D||---7---|      D||---5---|
A||---3---|      A||---0---|      A||---7---|      A||---5---|
D||---3---|      D||---0---|      D||---7---|      D||---5---|
Dodał: kubiczewski, 2014-02-25 21:22
Opracowania video z komentarzy

Dodaj komentarz ...i/lub link do filmiku video

Zaloguj się do serwisu
Ostatnie komentarze
1.
chrzanu
2014-01-05 19:50
Siema, jestem jeszcze troche zielony, powie ktos co oznaczaja x na tabulaturze??
2.
kubboo
2014-01-05 00:31
Sorry, końcówka refrenu powinna iść jednak tak: A||--------3--5--7-----------| D||--0--3-----x------------x-|
3.
dredziolq
2013-12-22 16:12
Ja walę. Drop D do tego? Ogarnij się.
4.
gylopl
2013-12-17 20:07
moze ktos ogarniety powiedziec jakie bicie? napisac po prostu "gora dol gora", jak to najlepiej zagrac
5.
dupajasia7
2013-10-19 19:49
coś mi się wydaje, że intro trochę inaczej wygląda: e||-------------------------|| B||-------------------------|| G||-------------------------|| D||-------------------------|| A||-----0--3--5h7-----------|| D||--0--------x----x--------|| i tak samo w zwrotce.
6.
michicybo
2013-10-17 17:20
http://youtu.be/lmF5f3NNj28
Wszelkie materiały i wypowiedzi zamieszczone na www.chords.pl są własnością ich autorów.