Zacznij systematycznie uczyć się grać na gitarze razem ze stroną Moja nauka - będziesz miał/miała do niej dostęp po zalogowaniu się w serwisie

Wojna w mieście - Jan Bo

Opracował -a: petlica,
Redaktor: Jonasz,
Pochodzi z: http://www.chords.pl
Data publikacji: 2009-03-31 09:52
 
Moja nauka


Ups, problem :-/
Zaloguj się Mój śpiewnik


intro
E|-----------------0-|-0---0-3(5)-0---0-|
H|--------3-3--------|---3----------3---|
G|--0h2h4-----4------|------------------|
D|-------------------|------------------|
A|-------------------|------------------|
E|-------------------|------------------|
                             bend

E|--0---0-3(5)-0---0-|-0---0------------|
H|----3----------3---|---3--------------|
G|-------------------|--------4p2p0-----|
D|-------------------|--------------2-2-|
A|-------------------|------------------|
E|-------------------|------------------|
          bend


E|--2-2-2-2-2-2-2-2|-2-------------------|
H|--0-0-0-0-0-0-0-0|-0-------------------|
G|--2-2-2-2-2-2-2-2|-2-------------------|
D|--1-1-1-1-1-1-1-1|-1---------------0h2-|
A|--2-2-2-2-2-2-2-2|-2-------------------|
E|-----------------|---------------------|

main riff x razy
E|---------------------|---------------------|
H|---------------------|---------------------|
G|---------------------|---------------------|
D|----------2----------|----------2----------|
A|------0-------0h2p0--|------0-------0h2p0--|
E|-0-03---3---3------3-|-0-03---3---3------3-|


E|---------------------|---------------------|
H|---------------------|---------------------|
G|---------------------|---------------------|
D|----------2----------|----------2----------|
A|------0-------0h2p0--|------0--------------|
E|-0-03---3---3------3-|-0-03---3------------|

pre ref
E|---------------------|---------------------|
H|---------------------|---------------------|
G|---2---2---2--3p2p0--|---------------------|
D|---2---2---2--3p2p0--|----------2----------|
A|---0---0-------------|------0-------0h20---|
E|-3---3---------------|-0-03---3---3-----3--|


E|---------------------|---------------------|
H|---------------------|---------------------|
G|---2---2---2--3p2p0--|---------------------|
D|---2---2---2--3p2p0--|----------2----------|
A|---0---0-------------|------0-------0h20---|
E|-3---3---------------|-0-03---3---3-----3--|


E|-3---5------3---5----|-3---5------3---5----|
H|-3---5------3---5----|-3---5------3---5----|
G|-4---6------4---6----|-4---6------4---6----|
D|-5---7------5---7----|-5---7------5---7----|
A|-5---7------5---7----|-5---7------5---7----|
E|-3---5------3---5----|-3---5------3---5----|


E|--2-2-2-2-2-2-2-2|-2-------------------|
H|--0-0-0-0-0-0-0-0|-0-------------------|
G|--2-2-2-2-2-2-2-2|-2-------------------|
D|--1-1-1-1-1-1-1-1|-1---------------0h2-|
A|--2-2-2-2-2-2-2-2|-2-------------------|
E|-----------------|---------------------|

ref
E|---------------------|---------------------|
H|---------------------|---------------------|
G|---------------------|---------------------|
D|----------2----------|----------2----------|
A|------0-------0h2p0--|------0-------0h2p0--|
E|--0-3---3---3------3-|-0-03---3---3------3-|


E|---------------------|---------------------|
H|---------------------|---------------------|
G|---------------------|---------------------|
D|----------2----------|----------2----------|
A|------0-------0h2p0--|------0--------------|
E|-0-03---3---3------3-|-0-03---3------------|

Dodaj komentarz ...i/lub link do filmiku video

Zaloguj się do serwisu
Wszelkie materiały i wypowiedzi zamieszczone na www.chords.pl są własnością ich autorów.