Zacznij systematycznie uczyć się grać na gitarze razem ze stroną Moja nauka - będziesz miał/miała do niej dostęp po zalogowaniu się w serwisie

Pajacyk (tab) - Jan Bo

Opracował -a: petlica,
Dodał -a: petlica,
Redaktor: petlica,
Pochodzi z: http://www.chords.pl
Data publikacji: 2010-04-08 08:38, Poprawiono 2010-04-08 08:42
 
Moja nauka


Ups, problem :-/
Zaloguj się Mój śpiewnik


Intro / Main riff

E|------------------|-------------------|------------------|-------------------|
B|------------------|-------------------|------------------|-------------------|
G|------------------|-------------------|------------------|-------------------|
D|-------4h5--------|-------------------|-------4h5--------|-------------------|
A|--5h7-------7-----|-------5h7---------|--5h7-------7-----|-------5h7---------|
E|---------------0--|--5h7-------3--0---|---------------0--|--5h7-------0------|


Riff A

|-----------------|---------------------|-----------------|---------------------|
|-----------------|------------12~------|-15b-------------|---------------12~---|
|-14b--14--12~----|------------12~------|------14b--12~---|---------------12~---|
|-----------------|-14p12-----------14--|-----------------|--------12h14--------|
|-----------------|--------14-----------|-----------------|-12h14---------------|
|-----------------|---------------------|-----------------|---------------------|


|-----------------|---------------------|-----------------|---------------------|
|-----------------|---------------------|-15b-------------|--------12~----------|
|-14b--14--12~----|---------------------|------14b--12~---|--------12~----------|
|-----------------|-14p12------12---14~-|-----------------|-12h14--------14-----|
|-----------------|--------14-----------|-----------------|---------------------|
|-----------------|---------------------|-----------------|---------------------|



Ref

|-------------------|-------------------|-------------------|-------------------|
|-------------------|-------------------|-------------------|-------------------|
|--9----------------|-------------------|--4----------------|--7----------------|
|--9----------------|--5----------------|--4----------------|--7----------------|
|--7----------------|--5----------------|--2----------------|--5----------------|
|-------------------|--3----------------|-------------------|-------------------|



Riff B

|-----------------|------------------|-----------------|-----------------|
|-----------------|----------5---5---|-----------------|----------5------|
|-----------------|----------7---7---|-----------------|----------7------|
|-----------------|----------6---6---|-----------------|----------6------|
|-----------------|----------7---7---|-----------------|----------7------|
|-7-6-5---\3---0--|-\3---0-----------|-7-6-5---\3---0--|-\3---0----------|



Tego drugiego riffu nie jestem pewien, ale może ktoś coś do niego wymyśli.
Miłego szarpania

Pozdt

Dodaj komentarz ...i/lub link do filmiku video

Zaloguj się do serwisu
Wszelkie materiały i wypowiedzi zamieszczone na www.chords.pl są własnością ich autorów.