Zacznij systematycznie uczyć się grać na gitarze razem ze stroną Moja nauka - będziesz miał/miała do niej dostęp po zalogowaniu się w serwisie

Radio gra na fali (tab) - Jan Bo

Opracował -a: petlica,
Dodał -a: petlica,
Redaktor: petlica,
Pochodzi z: http://www.chords.pl
Data publikacji: 2010-11-23 08:30
 
Moja nauka


Ups, problem :-/
Zaloguj się Mój śpiewnik


Intro / Riff A

  Guitar
E||----------------------------||
H||-----------------2-----5----||
G||-----4---2-4---3---3-2---2--||
D||---2---2-----2--------------||
A||----------------------------||
E||----------------------------||

  Bass
G||----------------------------||
D||----------------------------||
A||---------------1-----0------||
E||-0-------3------------------||



E||----------------------------|---------------------------|
H||-----------------2-----5/---|---------------------------|
G||-----4---2-4---3---3-2------|---------------------------|
D||---2---2-----2--------------|-----5h7~---5--------------|
A||----------------------------|--------------7-6----------|
E||----------------------------|-0-0--------------5-3~-----|




Riff B

E|-----------------|-----------------|-----------------|-----------------|
H|-----------------|-----------------|-----------------|-----------------|
G|-----2~----------|------2~/(9)-----|-----2~----------|-----------------|
D|-0h2-2~----------|--0h2-2~/(9)-----|-0h2-2~----------|-----------------|
A|-----------------|-----------------|-----------------|-----------------|
E|-----------------|-----------------|-----------------|-----------------|


Ref

E|----------------------------|---------------------------|
H|----------------------------|---------------------------|
G|----------------------------|---7---7-------6---6-4-----|
D|-----------------9h11-11~---|-5---5---5\----6---6-4-----|
A|--2--2--9h11-11--0-----0----|---------------4---4-2-----|
E|--0--0--0-----0-------------|---------------------------|

End

E|----------------------------|---------------------------|
H|----------------------------|---------------------------|
G|----------------------------|---------------------------|
D|-----5h7~---------5h7~------|-----5h7~---5--------------|
A|----------------------------|--------------7-6----------|
E|-0-0----------0-0-----------|-0-0--------------5-3~-----|


Pozdr
petlica

Dodaj komentarz ...i/lub link do filmiku video

Zaloguj się do serwisu
Wszelkie materiały i wypowiedzi zamieszczone na www.chords.pl są własnością ich autorów.