Zacznij systematycznie uczyć się grać na gitarze razem ze stroną Moja nauka - będziesz miał/miała do niej dostęp po zalogowaniu się w serwisie

Tylko... (tab) - Jan Bo

Opracował -a: petlica,
Dodał -a: petlica,
Redaktor: petlica,
Pochodzi z: http://www.chords.pl
Data publikacji: 2010-11-23 08:30
 
Moja nauka


Ups, problem :-/
Zaloguj się Mój śpiewnik


Riff A

E|-----------------|-----------------|-----------------|-----------------|
H|-----------------|-----------------|-----------------|-----------------|
G|-----------------|-----------------|-----------------|-----------------|
D|-----------------|-----------------|-----------------|-----------------|
A|-----------0-5-0-|-5-4-2-0-2-0-----|-0-------1-0-----|-0-------5-7\----|
E|-----------------|-------------3-0-|---3-2-0-----3-0-|---3-2-0---------|


E|-----------------|-----------------|-----------------|-----------------|
H|-3---------------|-----------------|-----------------|-----------------|
G|-2---------------|-2---2-----------|-----------------|-----------------|
D|-0---------------|-2---2-----------|-----------------|-----------------|
A|-----------------|-0---0-----0-5-0-|-----------------|-----------------|
E|-----------------|---3-------------|-----------------|-----------------|

Riff B

E|-------------------|-------------------|-------------------|-------------------|
H|-----0--------0----|-----0--------0----|-----0--------0----|-----0--------0----|
G|---2----2---2----2-|---2----2---2----2-|---2----2---2----2-|---2----2---2----2-|
D|-------------------|-------------------|-------------------|-------------------|
A|-------------------|-------------------|-------------------|-------------------|
E|-2--------2--------|-3--------3--------|-2--------2--------|-3--------3--------|

Pozdr
petlica

Dodaj komentarz ...i/lub link do filmiku video

Zaloguj się do serwisu
Wszelkie materiały i wypowiedzi zamieszczone na www.chords.pl są własnością ich autorów.