Zacznij systematycznie uczyć się grać na gitarze razem ze stroną Moja nauka - będziesz miał/miała do niej dostęp po zalogowaniu się w serwisie

I nie licz na to (tab) - Jan Bo

Opracował -a: petlica,
Dodał -a: petlica,
Redaktor: petlica,
Pochodzi z: http://www.chords.pl
Data publikacji: 2010-11-23 08:31
 
Moja nauka


Ups, problem :-/
Zaloguj się Mój śpiewnik


Intro
                                                       x2
E|---------------------------|---------------------------|---------------------------|
H|---------------------------|---------------------------|---------------------------|
G|---------------------------|---------------------------|---------------------------|
D|---------------2--2--------|---------------2--2--------|---------------------------|
A|------5-5-7-7--2--2--------|------5-5-7-7--2--2--------|----4----7----9-----12~----|
E|-/7-7----------0--0--------|-/7-7----------0--0--------|-/2---/5---/7---/10--------|




E|----------------------------|---------------------------|
H|----------------------------|---------------------------|
G|---------------------7/6-7~-|---------------------------|
D|---------------2--2--6/5-6~-|---------------2--2--6/5\6-|
A|------5-5-7-7--2--2--7/6----|------5-5-7-7--2--2--7/6\7-|
E|-/7-7----------0--0---------|-/7-7----------0--0--------|
                           A.H


E|---------------------------|---------------------------|---------------------------|
H|---------------------------|---------------------------|---------------------------|
G|---------------------7/6-7-|---------------------------|---------------------------|
D|---------------2--2--6/5---|---------------2--2--------|---------------------------|
A|------5-5-7-7--2--2--7/6---|------5-5-7-7--2--2--------|----4----7----9-----12~----|
E|-/7-7----------0--0--------|-/7-7----------0--0--------|-/2---/5---/7---/10--------|
                          A.H

Verse
                                                       x2
E|---------------------------|---------------------------|---------------------------|
H|---------------------------|---------------------------|---------------------------|
G|---------------------------|---------------------------|---------------------------|
D|---------------2--2--------|---------------2--2--------|---------------------------|
A|------5-5-7-7--2--2--------|------5-5-7-7--2--2--------|----4----7----9-----12~----|
E|-/7-7----------0--0--------|-/7-7----------0--0--------|-/2---/5---/7---/10--------|




E|---------------------------|---------------------------|
H|---------------------------|---------------------------|
G|---------------------------|---------------------------|
D|---------------2--2--------|---------------2--2--------|
A|------5-5-7-7--2--2--------|------5-5-7-7--2--2--------|
E|-/7-7----------0--0--------|-/7-7----------0--0--------|


E|---------------------------|---------------------------|-------------------|
H|---------------------------|---------------------------|-------------------|
G|---------------------------|---------------------7/6\7-|-------------------|
D|---------------2--2--------|---------------2--2--6/5\6-|-------------------|
A|------5-5-7-7--2--2--------|------5-5-7-7--2--2--7/6\7-|------5-5-7-7------|
E|-/7-7----------0--0--------|-/7-7----------0--0--------|-/7-7--------------|



Chorus

E|-3---3-----2---2-------|----------------------------|
H|-3---3-----3---3-------|----------------------------|
G|-0---0-----2---2-------|-----2-----2----2-----------|
D|-0---0-----0---0-------|-----2-----2----2-----------|
A|-2---2-----------------|-----0-----0----0---2~--3~--|
E|-3---3-----------------|-(3)-----3------------------|


E|-3---3-----2---2-------|----------------------------|
H|-3---3-----3---3-------|----------------------------|
G|-0---0-----2---2-------|-----2-----2----------------|
D|-0---0-----0---0-------|-----2-----2----------------|
A|-2---2-----------------|-----0-----0----3~--2~--0---|
E|-3---3-----------------|-(3)-----3------------------|


E|-3---3-----2---2-------|----------------------------|
H|-3---3-----3---3-------|----------------------------|
G|-0---0-----2---2-------|-----2-----2----2-----------|
D|-0---0-----0---0-------|-----2-----2----2-----------|
A|-2---2-----------------|-----0-----0----0---2~--3~--|
E|-3---3-----------------|-(3)-----3------------------|


E|-3---3-----2---2-------|----------------------------|
H|-3---3-----3---3-------|----------------------------|
G|-0---0-----2---2-------|---2-------2----2--2--2--2--|
D|-0---0-----0---0-------|---2-------2----2--2--2--2--|
A|-2---2-----------------|---0-------0----0--0--0--0--|
E|-3---3-----------------|----------------------------|


Riff A
                            x3
E|------------------------0---|---------------------------|---------------------------|
H|------------------------3---|---------------------------|---------------------------|
G|--------------------2/4-----|---------------------------|---------------------------|
D|---------------2--2---------|---------------2--2--------|---------------------------|
A|------5-5-7-7--2--2---------|------5-5-7-7--2--2--------|----4----7----9-----12~----|
E|-/7-7----------0--0---------|-/7-7----------0--0--------|-/2---/5---/7---/10--------|


Riff B

E||-----------------------------|------------------------------||---------------|
H||-----------------------------|------------------------------||---------------|
G||---------------7--7----------|---------------7--7-----------||---------------|
D||---------------6--6----------|---------------6--6-----------||---------------|
A||------5-5-7-7--7--7---7-6-5~-|------5-5-7-7--7--7----4-3-2~-||------5-5-7-7--|
E||-/7-7------------------------|-/7-7-------------------------||-/7-7----------|



Riff C-End
E|----------------------------|---------------------------|
H|----------------------------|---------------------------|
G|---------------------7/6-7~-|---------------------------|
D|---------------2--2--6/5-6~-|---------------2--2--6/5\6-|
A|------5-5-7-7--2--2--7/6----|------5-5-7-7--2--2--7/6\7-|
E|-/7-7----------0--0---------|-/7-7----------0--0--------|
                           A.H


E|------------------------0---|-----------------------------|------------|
H|------------------------3---|-----------------------------|-8---8~-----|
G|--------------------2/4-----|---------------7--7----------|-7---7~-----|
D|---------------2--2---------|---------------6--6----------|-6---6~-----|
A|------5-5-7-7--2--2---------|------5-5-7-7--7--7---7-6-5~-|-7---7~-----|
E|-/7-7----------0--0---------|-/7-7----------0--0----------|------------|


Pozdr
petlica

Dodaj komentarz ...i/lub link do filmiku video

Zaloguj się do serwisu
Ostatnie komentarze
1.
porter80
2011-12-12 18:35
świetnie opracowane!! pozdrawiam
Wszelkie materiały i wypowiedzi zamieszczone na www.chords.pl są własnością ich autorów.